PrimaNota.ru - самый крупный в мире бесплатный архив песенных текстов, аккордов, табулатур и нот


Guttermouth - Bbb - аккорды и текст, таба, видео

Регистрация Запомнить меня
Войти через:  Facebook Google Twitter Vk Yandex Mail.ru

Guttermouth - Bbb - аккорды и текст, таба, видео

Печатать
Просмотров: 144
Bbb
Guttermouth
Artist:Guttermouth
Song  :BBB
Album :Gorgeous

tabbed by Tony Michel

Basically three riffs

Verse:
e|----------------------|-------------------
B|----------------------|-------------------
G|-------5-7-8---8-8----|----5--------------
D|-----7-5-7-8---8-8----|--7-5-5-7---7-7----
A|-----7-3-5-6---6-6----|--7-3-5-7---7-7----
E|-----5----------------|--5---3-5---5-5----
        8 times              4 times

Chorus:
e|-------------------------
B|-------------------------
G|---------5-5--7-8-8-8----
D|--7-7-7--5-5--7-8-8-8----
A|--7-7-7--3-3--5-6-6-6----
E|--5-5-5------------------

The order is:
Intro(1st part of verse done 4 extra times)
Verse
Verse
Chorus(4 times normal, then 4 more palm muted)
Outro(2nd part of verse 4 times)

plase e-mail if you have any other GORGEOUS tabs,or "Carp"
from Album formerly known as...
     
Добавлено: 08.11.2013
Другие материалы по этой песне:
  • Аккорды и текст

Страница создана 10.06.2012
http://primanota.ru/guttermouth/bbb-chords.htm
Привет, Гость.
Предлагаем пройти революционный курс по гитаре.
Подарок от PrimaNota.Ru, забирай!