PrimaNota.ru - самый крупный в мире бесплатный архив песенных текстов, аккордов, табулатур и нот


Guttermouth - Bakers Dozen - аккорды и текст, таба, бас-таба, видео

Регистрация Запомнить меня
Войти через:  Facebook Google Twitter Vk Yandex Mail.ru

Guttermouth - Bakers Dozen - аккорды и текст, таба, бас-таба, видео

Печатать
Просмотров: 172
Bakers Dozen
Guttermouth
		   -----------------------------------------------------------------------------
         BAKERS DOZEN - GUTTERMOUTH
-----------------------------------------------------------------------------


Intro solo thing
e|---------------------------------------------------------------------------------------
B|---------------------------------------------------------------------------------------
G|--7---7-7-7-7-----7-7-7-7-----7-7-7-7-----7-7-7-7-----7-7-7-7-----7-7-7-7-----7-7-7-7--
D|---------------------------------------------------------------------------------------
A|--5---5-5-5-5-----5-5-5-5-----5-5-5-5-----5-5-5-5-----5-5-5-5-----5-5-5-5-----5-5-5-5--
E|---------------------------------------------------------------------------------------

e|---------------------------------------------------------------------------------------
B|---------------------------------------------------------------------------------------
G|--10--10-10-10-10-------13----13-13-13-13----------------------------------------------
D|---------------------------------------------------------------------------------------
A|---8---8--8--8--8-------11----11-11-11-11----------------------------------------------
E|---------------------------------------------------------------------------------------


e|---------------------------------------------------------------------------------------
B|---------------------------------------------------------------------------------------
G|--9-9-9-9-7-7-7-7---------5-5--7--5----------------------------------------------------
D|------------------7-7-7-7---------------X2---------------------------------------------
A|--7-7-7-7-5-5-5-5---------3-3--5--3----------------------------------------------------
E|------------------5-5-5-5--------------------------------------------------------------

Verse X4
e|---------------------------------------------------------------------------------------
B|---------------------------------------------------------------------------------------
G|--7-5-7--7-5----------------8----------------------------------------------------------
D|--7-5-7--7-5--X3-----5-5-5--8--8-------------------------------------------------------
A|--5-3-5--5-3---------5-5-5--6--8-------------------------------------------------------
E|---------------------3-3-3-----6-------------------------------------------------------


Chorus X4
e|---------------------------------------------------------------------------------------
B|---------------------------------------------------------------------------------------
G|--7-7-------10-10----------------------------------------------------------------------
D|--7-7--7-7--10-10--10-10---------------------------------------------------------------
A|--5-5--7-7---8--8--10-10---------------------------------------------------------------
E|-------5-5----------8--8---------------------------------------------------------------

Bridge - same as verse
=====================================================================     
Добавлено: 07.10.2013
Другие материалы по этой песне:
  • Аккорды и текст

Страница создана 14.04.2012
http://primanota.ru/guttermouth/bakers-dozen-chords.htm
Привет, Гость.
Предлагаем пройти революционный курс по гитаре.
Подарок от PrimaNota.Ru, забирай!