PrimaNota.ru - самый крупный в мире бесплатный архив песенных текстов, аккордов, табулатур и нот


Gusttavo Lima - Menina - аккорды и текст, видео

Регистрация Запомнить меня
Войти через:  Facebook Google Twitter Vk Yandex Mail.ru

Gusttavo Lima - Menina - аккорды и текст, видео

Печатать
Просмотров: 181
Menina
Gusttavo Lima
-This music use capo 2ª, i wrote for myself and may have some mistakes.-

Capo II

Intro:
      G          C9     Em7   C9 D9
e ----5-5--------5-5---5-5-----5/7--------|
b ----5-5-----2--5-5---5-5-----5/7--------|
g ----2-2----2---2-2---2-2-----2----------|
D ----------------------------------------|
A --------4h5---5--5--4--4-----5/7--------|
E ---5--5---------------------------------|


Solo:
                                   G
e-9h10-9---------------------------5--------|
b------------10--------------------5--------|
g-----------------9--7/6--4h6--2---2--------|
D ------------2--------------------2--------|
A ------------4--------------------4--------|
E ------------5--------------------5--------|


End:
     D        G
e ---4h5-4----5----------------------------|
b --------5---5----------------------------|
g ---------4--2----------------------------|
D ------------2----------------------------|
A ------------4----------------------------|
E ------------5----------------------------|


G
Ainda sinto o gosto desse beijo seu
Em
Sinto o teu corpo colado no meu
C                                      D (solo)
E as minhas mãos suando de tanto desejo

G
O tempo vai passando e eu te amo mais
Em
Amores e paixões você é minha paz
C                                G
Você no coração te amo em segredo

Pré-Refrão:
Am                    C                A
Nunca imaginei que um dia eu ia amar assim
Am                   C                   A
O teu sorriso me completa vem cuidar de mim

Refrão:
G                                       Em7
Menina se soubesse o quanto eu te amo é
                                     C
Do tamanho do universo é praia é maré
                                        A
Te amo mais que ontem menos do que amanhã

G                                              Em
Menina eu não tenho tantas palavras pra expressar
                        Em                  C
Minhas palavras são de amor eu só sei cantar
                                           D
Declaro aqui agora que eu sou sempre seu fã,
   G  Em  C D (End)
Menina...
Добавлено: 21.10.2013
Другие материалы по этой песне:
  • Аккорды и текст

Страница создана 21.10.2013
http://primanota.ru/gusttavo-lima/menina-chords.htm
Привет, Гость.
Предлагаем пройти революционный курс по гитаре.
Подарок от PrimaNota.Ru, забирай!