PrimaNota.ru - самый крупный в мире бесплатный архив песенных текстов, аккордов, табулатур и нот


Guster - Doin It By Myself - таба, видео

Регистрация Запомнить меня
Войти через:  Facebook Google Twitter Vk Yandex Mail.ru

Guster - Doin It By Myself - таба, видео

Печатать
Просмотров: 124
-------------------------------------------------------------------------------
                             Doin' It By Myself - Guster
-------------------------------------------------------------------------------
Tabbed by: Dameet


Intro Riff:
e|-------0~-------3~----------0~-------3~------------------------------------|
B|-----1--------1-----------1--------1---------------------------------------|
G|---2--------2-----------2--------2-----------------------------------------|
D|-3--------3-----------3--------3-------------------------------------------|
A|---------------------------------------------------------------------------|
E|---------------------------------------------------------------------------|

Main Riff:
    F               Dm     F                 Dm           B
e|---------------------------------------------------------------------------|
B|--10--8------------------10--8--------------------------8-11---------------|
G|--------10--9--9--77-------------10--9--9--77----7-9-10--------------------|
D|---------------------------------------------------------------------------|
A|---------------------------------------------------------------------------|
E|---------------------------------------------------------------------------|
                C                  Am                  B           C
e|------------------------------------------8-8-8--8--10---10--10--8~--------|
B|--11--10--8--11----11--11--10-10-10----------------------------------------|
G|---------------------------------------------------------------------------|
D|---------------------------------------------------------------------------|
A|---------------------------------------------------------------------------|
E|---------------------------------------------------------------------------|

Verse: 

F           Dm
Everyone is sleeping

F             Dm
Everything is perfect

            B
This is our chance

            C
This is our time

                Am
Come, come real quick

           B           C
Let's feel alive, feel alive


F               Dm
We're no longer babies

F                  Dm
Pure, pristine, un-broken

                B
So learn how to walk

                      C
But all we want is to fly

            Am
The game is fixed

                 B            C            F       B
But that's being alive, being alive, being alive....

             F       B
That's being alive....


Chorus:

   B                                 C
If you don't come, I'm doin' it by myself

   B                                C         ...(F) (Into Main Riff)
If you don't care, I'll do it by myself (By myself!)


Main Riff:
    F               Dm     F                 Dm           B
e|---------------------------------------------------------------------------|
B|--10--8------------------10--8--------------------------8-11---------------|
G|--------10--9--9--77-------------10--9--9--77----7-9-10--------------------|
D|---------------------------------------------------------------------------|
A|---------------------------------------------------------------------------|
E|---------------------------------------------------------------------------|
                C                  Am                  B            C
e|---------------------------------------------8-8-8---10---10--10--8~-------|
B|--11--10--8--11------11--11--10--10----------------------------------------|
G|---------------------------------------------------------------------------|
D|---------------------------------------------------------------------------|
A|---------------------------------------------------------------------------|
E|---------------------------------------------------------------------------|


Verse:

F             Dm
Gentlemen and ladies

F              Dm
Charlatans and perverts

              B
They'll never confess

                 C
Confess to their crimes

               Am
Let's flip the switch

           B         C           F      B
We can be alive, be alive, feel alive...

            F      B
Let's feel alive...


Chorus:

   B                                 C
If you don't come, I'm doin' it by myself

   B                                C          
If you don't care, I'll do it by myself,  yeaaahh


  B                                      C
I want you to know, I'm gonna do it by myself

   B                              C
So get back up(?) I'll do it by myself

         F      B
Do it by myself!

      F    B
By myself!

F              B           
Laaa la LAA La laa la Laa LAAA

F              B                F       B    C
Laaa la LAA La laa la Laa LAAAAAAAAAAA

                        F   B   C 
lalalalalaaaaaa(fade out)

**F B C(During the bass lines)

**The ending is alternating F and B chords with a C chord played optionally 
after the B. You can hear it if you listen to the end**

***********************************************************************************************
~~Thank you all and hope you enjoy playing this song off Guster's recent new album Evermotion~~

Добавлено: 14.08.2015
Вам также может быть интересно:
Другие материалы по этой песне:
  • Аккорды и текст

Страница создана 14.08.2015
http://primanota.ru/guster/doin-it-by-myself-chords.htm
Привет, Гость.
Предлагаем пройти революционный курс по гитаре.
Подарок от PrimaNota.Ru, забирай!