PrimaNota.ru - самый крупный в мире бесплатный архив песенных текстов, аккордов, табулатур и нот


Guster - Beginning Of The End - аккорды и текст, таба, видео

Регистрация Запомнить меня
Войти через:  Facebook Google Twitter Vk Yandex Mail.ru

Guster - Beginning Of The End - аккорды и текст, таба, видео

Печатать
Просмотров: 188
Beginning Of The End
Guster
---------------------------------
The Beginning Of The End - Guster
  From : Ganging Up On The Sun
---------------------------------
Tabbed by: William Sulzer
Email: wsulze1@lsu.edu

Tuning: EADGBe

***Chord placement in lyrics loosely based on timing***

Intro:
Am Asus4 Am A5
Am Asus4 Am A5

Verse 1:
Am        Asus4   Am         A5
We're not sentimental, we're just
Am  Asus4           Am A5
Oil filled machines
Am     Asus4      Am        A5  D
Trying not to say the things we mean
(D)
    You gotta show us a little love

Am Asus4 Am A5
Am Asus4 Am A5

Verse 2:
Other brother tells us that it's
Something in our jenes
Pretty soon we'll all be coming clean
Start showing a little skin

Am Asus4 Am A5
Am Asus4 Am A5

Chorus:
G~
I'm the judge and jury
        F~
I'm the lion and the lamb
    G~                           F~
And this is the beginning of the end

                    F~
It's breaking you down
We're breaking you down

 Am Asus4 Am A5
(down)
Am Asus4 Am A5

Solo:
*** Am pentatonic ***
e|-/5*-------------------------|-/5*-------------------------|
b|-----5-8-5-----------5-------|-----5-8-5-----------5-------|
G|-----------7-5---5-7---7-5---|-----------7-5---5-7---7-5---|
D|---------------7-----------7-|---------------7-----------7-|
A|-----------------------------|-----------------------------|
E|-----------------------------|-----------------------------|
(*tremolo pick, sort of, repeat that 5 lots of times, too many to type; listen to the 
to follow the beat)

e|-/5*-------------------------|-/5*--7*--8*--10/12*\10*-----|
b|-----5-8-5-----------5-------|-----------------------------|
G|-----------7-5---5-7---7-5---|-----------------------------|
D|---------------7-----------7-|-----------------------------|
A|-----------------------------|-----------------------------|
E|-----------------------------|-----------------------------|

(Those are the basic notes. Joe slightly bends notes, and combines notes in the scale at 
parts, that I didn't include)

Verse 3:
We're not recognizable
We're sunken submarines
Trying to excape before we're seen
You're gonna miss us when we're gone

Am Asus4 Am A5
Am Asus4 Am A5

Chorus:
G~
I'm the judge and jury
        F~
I'm the lion and the lamb
    G~                           F~
And this is the beginning of the end

                    F~
It's breaking you down
                     F~
We're breaking you down

Outro:
Am Asus4 Am A5  
Добавлено: 01.03.2012
Другие материалы по этой песне:
  • Аккорды и текст

Страница создана 01.03.2012
http://primanota.ru/guster/beginning-of-the-end-chords.htm
Привет, Гость.
Предлагаем пройти революционный курс по гитаре.
Подарок от PrimaNota.Ru, забирай!