PrimaNota.ru - самый крупный в мире бесплатный архив песенных текстов, аккордов, табулатур и нот


Gustavo Santaolalla - Wings - таба, видео

Регистрация Запомнить меня
Войти через:  Facebook Google Twitter Vk Yandex Mail.ru

Gustavo Santaolalla - Wings - таба, видео

Печатать
Просмотров: 931
Tabbed by clint,  clintard_leonard2004@yahoo.com  any comments appreciated!
I found it really helpful to listen to the song while trying to play. Don't
be intimidated this song is really easy to play. 

You start of by finger picking this:

e-----------1-----0--------------|
B--0-1-3-----------------1-1--0--|
G--------------------------------|
D-----------0--------------------|
A----0-2----------3--------------|
E--3--------------------------3--|


e-----------------------------|
B-0--1-0----------------------|
G----------2------0----0--0---|
D----------0------------------|
A----0------------3-----------|
E-3----3------------------3---|
  

When its time for strumming use these chords.

G am G dm   C    Gsus4 G

G am G dm   C          G


Hope you found this helpful, this is my first tab. chat: clintard_leonard2004 (yahoo messenger)
Добавлено: 01.06.2012
Другие материалы по этой песне:

Страница создана 23.03.2012
http://primanota.ru/gustavo-santaolalla/wings-chords.htm
Привет, Гость.
Предлагаем пройти революционный курс по гитаре.
Подарок от PrimaNota.Ru, забирай!