PrimaNota.ru - самый крупный в мире бесплатный архив песенных текстов, аккордов, табулатур и нот


Gustavo Santaolalla - Partida Del Leprosario - таба, видео

Регистрация Запомнить меня
Войти через:  Facebook Google Twitter Vk Yandex Mail.ru

Gustavo Santaolalla - Partida Del Leprosario - таба, видео

Печатать
Просмотров: 148
Gustavo Santaolalla - Partida del Leprosario (The Motorcycle Diaries)
Tuning: EADF#BF# (Capo 5th fret)

Listen to the song to get the right timing

~ = let ring
h = hammer-on
p = pull-off

F#|---0-------------------0----6h7-1h2--4h5------4~-4h5------------------------|
B |-----0-2--2-5----2h3p2---0---------------6h7--------------------------------|
F#|--------------3-------------------------------------------------------------|
D |----------------------------------------------------------------------------|
A |----------------------------------------------------------------------------|
E |----------------------------------------------------------------------------|

|----------------------------------------------------------------------------|
|---0-3--0-3-(7)--0-3-(7)-0-----------6h7------------------------------------|
|----------------------------4h5-7h8------6h7--6h7-7h8(p)5-------------------|
|----------------------------------------------------------------------------|
|----------------------------------------------------------------------------|
|----------------------------------------------------------------------------|

|----------------------------------------------------------------------------|
|------------6h7--------------------------5----------7-----------------------|
|---4h5-7h8------6h7--6h7-7h8p5--0-5-8--7---3--7h8p7---5---------------------|
|----------------------------------------------------------------------------|
|----------------------------------------------------------------------------|
|----------------------------------------------------------------------------|

|---6h7-1h2--4h5---------------0h7-0h3--0h5-0--5~-6~-------------------------|
|----------------6h7--5p3-0h3------------------------------------------------|
|----------------------------------------------------------------------------|
|----------------------------------------------------------------------------|
|----------------------------------------------------------------------------|
|----------------------------------------------------------------------------|

Добавлено: 03.12.2015
Другие материалы по этой песне:
  • Аккорды и текст

Страница создана 03.12.2015
http://primanota.ru/gustavo-santaolalla/partida-del-leprosario-chords.htm
Привет, Гость.
Предлагаем пройти революционный курс по гитаре.
Подарок от PrimaNota.Ru, забирай!