PrimaNota.ru - самый крупный в мире бесплатный архив песенных текстов, аккордов, табулатур и нот


Gus Viseur - Swing Valse - таба, видео

Регистрация Запомнить меня
Войти через:  Facebook Google Twitter Vk Yandex Mail.ru

Gus Viseur - Swing Valse - таба, видео

Печатать
Просмотров: 92
Авторы музыки: Gus Viseur, Pierre "Baro" Ferret

-------------------------------------------------------------------------------
                           Swing Valse - Gus Viseur
-------------------------------------------------------------------------------

Tabbed by: Ashley
E-mail: AshJamBor@gmail.com

Here's my guitar version of Swing Valse by Gus Viseur, originally on chromatic accordion.

Tuning: Standard, 3/4, 176bpm

Song Structure: A B A B A

Part A
    |     |   |   |     |     |   |     |     |   |     |   |   |
|-------|-------------|-0h1p0---------|---------------|-------------|
|---1---|---------1-3-|-------3-1-----|---------------|---------1---|
|-2---2-|-------2-----|-----------2---|---------------|-------2---2-|
|-------|-2-2-3-------|-------------3-|-2h3p2-0-------|-------------|
|-------|-------------|---------------|---------3-0---|-------------|
|-------|-------------|---------------|-------------1-|-0-----------|

  |   |   |     |     |   |     |     |   |    |   |   |
|-------------|-0h1p0---------|--------------|-------------|
|---------1-3-|-------3-1-----|-1h3p1--------|---------3---|
|-------2-----|-----------2---|-------3------|-------3---3-|
|-2-2-3-------|-------------3-|--------------|-------------|
|-------------|---------------|--------------|-------------|
|-------------|---------------|--------------|-------------|

  |     |   |     |   |   |     |   |   |     |   |   |
|-------------0-|-5-4-3-2-1-0-|-3-------3-2-|-1-0---3-5---|
|-----------3---|-------------|-------------|-----6-----6-|
|-2h3p2-1-2-----|-------------|-------------|-------------|
|---------------|-------------|-------------|-------------|
|---------------|-------------|-------------|-------------|
|---------------|-------------|-------------|-------------|

  |   |   |     |   |   |     |   |   |       |   |   |
|-------------|---------3---|---------------|-------------|
|-3-----3-2-3-|-5-5-4-5---5-|-3-----3-3h5p3-|-1-------1---|
|-------------|-------------|---------------|-------2---2-|
|-------------|-------------|---------------|-------------|
|-------------|-------------|---------------|-------------|
|-------------|-------------|---------------|-------------|

  |   |   |     |     |   |     |     |   |     |   |   |
|-------------|-0h1p0---------|---------------|-------------|
|---------1-3-|-------3-1-----|---------------|---------1---|
|-------2-----|-----------2---|---------------|-------2---2-|
|-2-2-3-------|-------------3-|-2h3p2-0-------|-------------|
|-------------|---------------|---------3-0---|-------------|
|-------------|---------------|-------------1-|-0-----------|

  |   |   |       |   |   |     |   |   |     |   |   |
|---------0-1-2-|-3-2-1-------|-------------|-------------|
|-------1-------|-------4-1-2-|-3-----------|-------------|
|-0---2---------|-------------|-------------|-------------|
|---3-----------|-------------|---------2-3-|-4---------4-|
|---------------|-------------|-------------|-------------|
|---------------|-------------|-------------|-------------|

  |   |   |     |   |   |       |   |   |     |   |   |
|-------------|-5-------4h5p4-|-3-2---5-----|-------------|
|---------2-3-|---------------|-----6-------|-4---------3-|
|---2-4-5-----|---------------|-----------4-|-------------|
|-5-----------|---------------|---------3---|-------------|
|-------------|---------------|-------------|-------------|
|-------------|---------------|-------------|-------------|

  |   |   |     |       |   |    |     |   |     |   |     |
|-------------|----------------|---------------|-1---------------|
|-3-2-1-0-----|-------------5--|-------------1-|-----------------|
|---------3-2-|-1-2-1-0---0----|-----------2---|-----3-2-0-------|
|-------------|---------4------|-3h5p3-2-3-----|-----------3-2-0-|
|-------------|----------------|---------------|-----------------|
|-------------|----------------|---------------|-----------------|


Part B
  |   |   |    |     |     |     |   |   |     |   |   |
|------------|-----------0-5---|-------------|-------------|
|------------|---------2-------|-5-----5-3---|---3-1-------|
|------------|-------3-------5-|-------------|-------3-2-0-|
|------------|---2-5-----------|-------------|-------------|
|-4----------|-4---------------|-------------|-------------|
|------------|-----------------|-------------|-------------|

  |   |   |     |   |   |     |   |   |     |   |   |
|-------------|-------------|-------------|-------------|
|-------------|---------3---|-------------|-------------|
|-------------|-------2-----|-2-----2-0---|-0-----------|
|-4-----------|-----4-----4-|-------------|-------------|
|-------------|---5---------|-------------|-------------|
|-------------|-------------|-------------|-------------|

  |   |   |     |     |   |     |   |   |     |   |   |
|---3-2-1-----|---------------|-0-----------|-------------|
|---------5-4-|-2h3p2-1-2-3-2-|-------3-3---|---------1---|
|-------------|---------------|-------------|---2-1-2---4-|
|-------------|---------------|-------------|-------------|
|-------------|---------------|-------------|-------------|
|-------------|---------------|-------------|-------------|

  |   |   |    |   |   |    |   |   |    |   |   |
|------------|------------|------------|-------------|
|------------|------------|------------|-----------2-|
|-3----------|-1----------|-2----------|---------3---|
|------------|------------|------------|-----2-5-----|
|------------|------------|------------|---4---------|
|------------|------------|------------|-------------|

  |     |     |       |     |     |        |  |        |       |   |   |
|-------------------|---------------7-10-|/12-10h12p10-------|-------------|
|-------------------|---------5-8-8------|-------------10----|-------------|
|---------------4-6-|---4-6-6------------|----------------10-|-------7-6-7-|
|---------2-5-5-----|-5------------------|-------------------|-12----------|
|---2-4-4-----------|--------------------|-------------------|-------------|
|-3-----------------|--------------------|-------------------|-------------|

  |   |    |       |     |     |       |   |    |     |   |   |
|----------10-11-|/14-10-13-11-------|-10-----------|-------------|
|---7-8-11-------|-------------11----|-------10-----|-------------|
|-8--------------|----------------12-|----------10--|-------7-6-7-|
|----------------|-------------------|--------------|-------------|
|----------------|-------------------|--------------|-------------|
|----------------|-------------------|--------------|-------------|

  |   |   |    |   |   |     |   |   |     |   |   |
|---------0--|-----0-------|---------0--|----------0-1-|
|-------3----|---3---3-----|-------3----|------3-4-----|
|-0----------|---------2---|------------|--------------|
|------------|-----------3-|------------|--------------|
|------------|-------------|-5----------|--------------|
|------------|-------------|------------|--------------|

  |   |   |    |   |   |    |   |   |    |   |   |
|-----1------|-----0------|------------|-------------|
|-----3------|-----2------|/3-------2--|-1-------1---|
|-----1------|-----0------|------------|-------2---2-|
|-----3------|-----2------|------------|-------------|
|-1----------|-0----------|------------|-------------|
|------------|------------|------------|-------------|

Добавлено: 27.06.2016
Другие материалы по этой песне:
  • Аккорды и текст

Страница создана 27.06.2016
http://primanota.ru/gus-viseur/swing-valse-chords.htm
Привет, Гость.
Предлагаем пройти революционный курс по гитаре.
Подарок от PrimaNota.Ru, забирай!