PrimaNota.ru - самый крупный в мире бесплатный архив песенных текстов, аккордов, табулатур и нот


Gus And Frank - Id Rather Be A Bass Player - бас-таба, видео

Регистрация Запомнить меня
Войти через:  Facebook Google Twitter Vk Yandex Mail.ru

Gus And Frank - Id Rather Be A Bass Player - бас-таба, видео

Печатать
Просмотров: 84
you can visit these guys web site @ www.gusandfrank.com.au, they are an aussie
band whit real potential. you can also download a copy of their songs on this album.


"I'd rather be a bass player"
by Gus And Frank 
from the album "I'd rather be a bass player"
tabbed by Aaron Dohnt

The whole song is slapped and popped
Add a little flair to the verses, as matty goes nuts on this track
INTRO (FAST!)

G|--7h9p7---------|
D|-------7h9p7\5--|
A|-X----X---------|
E|----------------|

VERSE

G|--------------------|
D|--------------------|
A|--------0-0-2-3-2-0-|
E|-0-2-3-X------------|

(Fill 1)

G|-------------|
D|-------------|
A|-------------|
E|-0-2-3-2-3-5-|

CHORUS

G|--------------------|
D|--------------------|
A|-0-2-3-5-5-3-2p0----|
E|-----------------3--|

VERSE

G|--------------------|
D|--------------------|
A|--------0-0-2-3-2-0-|
E|-0-2-3-X------------|

(Fill 1)

G|-------------|
D|-------------|
A|-------------|
E|-0-2-3-2-3-5-|

CHORUS

G|--------------------|
D|--------------------|
A|-0-2-3-5-5-3-2p0----|
E|-----------------3--|

SOLO 1

G|-9-9-11-9---9-9-9/14-14-14-12-12-12-11-11-11-9-|
D|-----------------------------------------------|
A|-----------------------------------------------|
E|-----------------------------------------------|

G|-9-9-11-9--20-20-20--9-9-9-11-9\---------|
D|-----------------------------------------|
A|-----------------------------------------|
E|--------------------------------/11\0/11-|

G|------------------------------------------|
D|--2-2--2-2-----4-4--4-4-------5-5--5-5----|
A|------------------------------------------|
E|0x-x-0x-x-0/2-2x-x-2x-x-2/3-3x-x-3x-x3/5-5|

G|------------------------------------|
D|--------3h5-----------3h5-----------|
A|------------------------------------|
E|-/11\0-3---3---1-1-1-3---3---1-1-1--|

G|--------------------------------|
D|--5h7--------------7h5--7-------|
A|--------------------------------|
E|-5---5-----3-3-3--5---5--3-3-3--|

G|--------------------------------|
D|--5h7-5h7-------5h7--5h7--------|
A|--------------------------------|
E|-7---7---5-5-5-7---7-----5-5-5--|

G|----------||--7h9p7----------|
D|----------||-------7h9p7\5---|
A|----------||-X----X----------|
E|-5----7---||-----------------|

VERSE

G|--------------------|
D|--------------------|
A|--------0-0-2-3-2-0-|
E|-0-2-3-X------------|


(Fill 2)

G|-------5-7-9-7-5-3|
D|------------------|
A|------------------|
E|-0-2-3------------|

CHORUS

G|--------------------|
D|--------------------|
A|-0-2-3-5-5-3-2p0----|
E|-----------------3--|

SOLO 2

G|------------------------------------------|
D|--2-2--2-2-----4-4--4-4-------5-5--5-5----|
A|------------------------------------------|
E|0x-x-0x-x-0/2-2x-x-2x-x-2/3-3x-x-3x-x3/5-5|

G|------------------------------------|
D|--------3h5-----------3h5-----------|
A|------------------------------------|
E|-/11\0-3---3---1-1-1-3---3---1-1-1--|

G|---------------------------------|
D|--7------------------7---7-------|
A|---------------------------------|
E|-5--5------3-3-3--5--5-5--3-3-3--|

G|--------------------------------|
D|--5h7-5h7-------5h7--5h7--------|
A|--------------------------------|
E|-7---7---5-5-5-7---7-----5-5-5--|


G|-------------------||--7h9p7------------|
D|-------------------||-------9p7-7h-9----| FUCK!
A|-------------------||-X------------0----|
E|-5----7---5---3---5||-------------x-----|
Добавлено: 25.07.2012
Другие материалы по этой песне:
  • Аккорды и текст

Страница создана 25.07.2012
http://primanota.ru/gus-and-frank/id-rather-be-a-bass-player-chords.htm
Привет, Гость.
Предлагаем пройти революционный курс по гитаре.
Подарок от PrimaNota.Ru, забирай!