PrimaNota.ru - самый крупный в мире бесплатный архив песенных текстов, аккордов, табулатур и нот


Gurra G - Citronen Är Gul - аккорды и текст, видео

Регистрация Запомнить меня
Войти через:  Facebook Google Twitter Vk Yandex Mail.ru

Gurra G - Citronen Är Gul - аккорды и текст, видео

Печатать
Просмотров: 48
Уроки эстрадного вокала в Санкт-Петербурге
Citronen Är Gul
Gurra G
[Intro]

e|---------------------------|---------------------------|
B|---------------------------|---------------------------|
G|---------------3-----5-----|---------------------------|
D|---------5-----------------|---12----12----------------|
A|---3-----------------------|---------------------------|
E|---------------------------|---------------16-----16---|

e|---------------------------|---------------------------|
B|---------------------------|---------------------------|
G|---------------3-----5-----|---------------------------|
D|---------5-----------------|---12----12----------------|
A|---3-----------------------|---------------------------|
E|---------------------------|---------------16-----16---|


[Chorus]

G        Dsus2       C
Citronen är gul bada bap bap ba!
G        Dsus2       C
Citronen är gul da dat da da!
G        Dsus2   
Citronen är gul!
G        Dsus2
Citronen är gul!
Добавлено: 17.08.2017
Другие материалы по этой песне:
  • Аккорды и текст

Страница создана 17.08.2017
http://primanota.ru/gurra-g/citronen-ar-gul-chords.htm
Привет, Гость.
Предлагаем пройти революционный курс по гитаре.
Подарок от PrimaNota.Ru, забирай!