PrimaNota.ru - самый крупный в мире бесплатный архив песенных текстов, аккордов, табулатур и нот


Guns Up - Frozen - таба, видео

Регистрация Запомнить меня
Войти через:  Facebook Google Twitter Vk Yandex Mail.ru

Guns Up - Frozen - таба, видео

Печатать
Просмотров: 119
Artist: Guns Up!
Song: Frozen
Album: Outlive
tabbed by dangerfall


E|----------------------------|
B|----------------------------|
G|----------------------------|
D|0~----------------3----3----|
A|0~----------------3----3----|
D|0~----------------3333333333|
                     .... ....

E|----------------------------------|
B|----------------------------------|
G|----------------------------------|
D|00-000-014-444-444-444-43----3----|
A|00-000-014-444-444-444-43----3----|
D|00-000-014-444-444-444-43333333333|
                           .... ....

E|------------------------|
B|------------------------|
G|------------------------|
D|3----3----3---3---3---3-|
A|3----3----3---3---3---3-|
D|33333333333---3---3---3-|
   .... ....     
             
E|----------------------|
B|----------------------|
G|----------------------|
D|4---0-4---0-4-3-------|
A|4---0-4---0-4-3-------|
D|4---0-4---0-4-3-------|
     
 
E|--------------------------------|
B|--------------------------------|
G|--------------------------------|
D|4\3---3-----4\3-----------------|
A|4\3---3-----4\3-----------------|
D|4\3-0-3-0-0-4\3-0-0-0-0-0-0-0-0-|
      .   . .     . . . . . . . .

E|--------------------------------|
B|--------------------------------|
G|--------------------------------|
D|4\3---3-----4\3---------1---4---|
A|4\3---3-----4\3---------1---4---|
D|4\3-0-3-0-0-4\3-0-0-0-0-1---4---|
      .   . .     . . . .     
Добавлено: 14.04.2012
Другие материалы по этой песне:

Страница создана 14.04.2012
http://primanota.ru/guns-up/frozen-chords.htm
Привет, Гость.
Предлагаем пройти революционный курс по гитаре.
Подарок от PrimaNota.Ru, забирай!