PrimaNota.ru - самый крупный в мире бесплатный архив песенных текстов, аккордов, табулатур и нот


Guns Of Moropolis - Mc Boogie - таба, видео

Регистрация Запомнить меня
Войти через:  Facebook Google Twitter Vk Yandex Mail.ru

Guns Of Moropolis - Mc Boogie - таба, видео

Печатать
Просмотров: 89
www.moropolis.de (Nuclear Blast)

-------------------------------------------------------------------------------
                             Mc Boogie - Guns of Moropolis
-------------------------------------------------------------------------------
Tabbed by: Xanatos
Email: xanatos-sic@hotmail.de

Tuning: Dropped C
Song is played ternary



Intro 1:

D|-------------------------------------------------|
A|-------------------------------------------------|
F|-2---2-4---2-2---2-4---2-2---2-4---2-5---7-----2_|
C|-0---0-0---0-0---0-0---0-0---0-0---0-3---5-----0_|
G|-------------------------------------------------|
C|-------------------------------------------------|

D|-------------------------------------------------|
A|-------------------------------------------------|
F|__---2-4---2-2---2-4---2-------------------------|
C|__---0-0---0-0---0-0---0- |-----pickslide------| |
G|------------------------- |-----pickslide------| |
C|------------------------- |-----pickslide------| |

Intro 2

D|-------------------------------------------------|
A|-------------------------------------------------|
F|-------------------------------------------------|
C|-------------------------------------------------|
G|-0-----3-----0-----3-----0-----3-----5---7-----0_|
C|-0---0-3---0-0---0-3---0-0---0-3---0-5---7-----0_|

D|-------------------------------------------------|
A|-------------------------------------------------|
F|-------------------------------------------------|
C|-------------------------------------------------|
G|__-----3-----0-----3-----0-----3-----5---7-----0_|
C|__---0-3---0-0---0-3---0-0---0-3---0-5---7-----0_|

D|-------------------------------------------------|
A|-------------------------------------------------|
F|-------------------------------------------------|
C|-------------------------------------------------|
G|__-----3-----0-----3-----0-----3-----5---7-----0_|
C|__---0-3---0-0---0-3---0-0---0-3---0-5---7-----0_|

D|-------------------------------------------------|-----------------------|
A|-------------------------------------------------|-----------------------|
F|-------------------------------------------------|-----------------------|
C|-------------------------------------------------|-----------------------|
G|__-----3-----0-----3-----7---5-3---0_____________|_______________________|
C|__---0-3---0-0---0-3---0-7---5-3---0_____________|_______________________|


Verse:

D|-------------------------------------------------|
A|-------------------------------------------------|
F|-2---2-4---2-2---2-4---2-2---2-4---2-----------2_|
C|-0---0-0---0-0---0-0---0-0---0-0---0-----------0_|
G|-------------------------------------5---7-------|
C|-------------------------------------5---7-------|

D|-------------------------------------------------|
A|-------------------------------------------------|
F|__---2-4---2-2---2-4---2-2---2-4---2-----------2_|
C|__---0-0---0-0---0-0---0-0---0-0---0-----------0_|
G|-------------------------------------5---7-------|
C|-------------------------------------5---7-------|

D|-------------------------------------------------|
A|-------------------------------------------------|
F|__---2-4---2-2---2-4---2-2---2-4---2-----------2_|
C|__---0-0---0-0---0-0---0-0---0-0---0-----------0_|
G|-------------------------------------5---7-------|
C|-------------------------------------5---7-------|

D|-------------------------------------------------|
A|-------------------------------------------------|
F|__---2-4---2-2---2-4---2-------------------------|
C|__---0-0---0-0---0-0---0-------------------------|
G|-------------------------------------------------|
C|-------------------------------------------------|


PreChorus:

D|-------------------------------------------------|
A|-------------------------------------------------|
F|-------------------------------------------------|
C|-------------------------------------------------|
G|-0-----3-----0-----3-----0-----3-----5---7-----0_|
C|-0---0-3---0-0---0-3---0-0---0-3---0-5---7-----0_|

D|-------------------------------------------------|
A|-------------------------------------------------|
F|-------------------------------------------------|
C|-------------------------------------------------|
G|__-----3-----0-----3-----0-----3-----5---7-----0_|
C|__---0-3---0-0---0-3---0-0---0-3---0-5---7-----0_|

D|-------------------------------------------------|
A|-------------------------------------------------|
F|-------------------------------------------------|
C|-------------------------------------------------|
G|__-----3-----0-----3-----0-----3-----5---7-----0_|
C|__---0-3---0-0---0-3---0-0---0-3---0-5---7-----0_|

D|-------------------------------------------------|
A|-------------------------------------------------|
F|-------------------------------------------------|
C|------------------------- |-----pickslide------| |
G|__-----3-----0-----3----- |-----pickslide------| |
C|__---0-3---0-0---0-3---0- |-----pickslide------| |


Chorus:


   | D|-------------------------------------------------|
   | A|-------------------------------------------------|
   | F|-------------------------------------------------|
   | C|-8-----8-----8-----8-----3-----3-----3-----3-----|
   | G|-8-----8-----8-----8-----3-----3-----3-----3-----|
   | C|-8-----8-----8-----8-----3-----3-----3-----3-----|
3x |
   | D|-------------------------------------------------|
   | A|-------------------------------------------------|
   | F|-------------------------------------------------|
   | C|-------------------------------------------------|
   | G|-0-----------0-----------0-----------5-----7-----|
   | C|-0---0-0-0-0-0---0-0-0-0-0---0-0-0-0-5-----7-----|

   | D|-------------------------------------------------|
   | A|-------------------------------------------------|
   | F|-------------------------------------------------|
   | C|-8-----8-----8-----8-----3-----3-----3-----3-----|
   | G|-8-----8-----8-----8-----3-----3-----3-----3-----|
   | C|-8-----8-----8-----8-----3-----3-----3-----3-----|
1x |
   | D|-------------------------------------------------|
   | A|-------------------------------------------------|
   | F|-------------------------------------------------|
   | C|-7-----7-----7-----7-----7-----7-----7-----7-----|
   | G|-7-----7-----7-----7-----7-----7-----7-----7-----|
   | C|-7-----7-----7-----7-----7-----7-----7-----7-----|


Bridge:

   | D|-------------------------------------------------|
   | A|-------------------------------------------------|
   | F|-------------------------------------------------|
   | C|-5-----5-----------5-----5-----5-----------5--5--|
   | G|-3-----3-----------3-----3-----3-----------3--3--|
   | C|-------------------------------------------------|
1x |
   | D|-------------------------------------------------|
   | A|-------------------------------------------------|
   | F|-------------------------------------------------|
   | C|-5-----5-----------5-----5-----5-----7-----10----|
   | G|-3-----3-----------3-----3-----3-----5-----8-----|
   | C|-------------------------------------------------|


   | D|-------------------------------------------------|
   | A|-------------------------------------------------|
   | F|-------------------------------------------------|
   | C|-------------------------------------------------|
   | G|-0-----0-----------------0-----0-----------------|
   | C|-0-----0-----3~~---------0-----0-----3~~---------|
   |
   | D|-------------------------------------------------|
   | A|-------------------------------------------------|
   | F|-------------------------------------------------|
   | C|-------------------------------------------------|
   | G|-0-----0-----------------0-----0-----3-----2-----|
   | C|-0-----0-----3~~---------0-----0-----3-----2-----|
3x |
   | D|-------------------------------------------------|
   | A|-------------------------------------------------|
   | F|-------------------------------------------------|
   | C|-5-----5-----------5-----5-----5-----------5-----|
   | G|-3-----3-----------3-----3-----3-----------3-----|
   | C|-------------------------------------------------|
   |
   | D|-------------------------------------------------|
   | A|-------------------------------------------------|
   | F|-------------------------------------------------|
   | C|-5-----5-----------5-----5-----5-----7-----10----|
   | G|-3-----3-----------3-----3-----3-----5-----8-----|
   | C|-------------------------------------------------|


Chronological Order:

Intro1
Intro2
Verse
PreChorus
Chorus
Verse
PreChorus
Chorus
Bridge
Intro1
Chorus
PreChorus

************************************

| _   tie
| /   slide up
| \   slide down
| h   hammer-on
| p   pull-off
| ~   vibrato
| +   harmonic
| x   Mute note
| b   Bend
| pb  Pre-bend
| br  Bend release
| pbr Pre-bend release
| brb Bend release bend

************************************
Добавлено: 01.05.2012
Другие материалы по этой песне:

Страница создана 01.05.2012
http://primanota.ru/guns-of-moropolis/mc-boogie-chords.htm
Привет, Гость.
Предлагаем пройти революционный курс по гитаре.
Подарок от PrimaNota.Ru, забирай!