PrimaNota.ru - самый крупный в мире бесплатный архив песенных текстов, аккордов, табулатур и нот


Guns N Roses - Pretty Tied Up - аккорды и текст, таба, бас-таба, видео

Регистрация Запомнить меня
Войти через:  Facebook Google Twitter Vk Yandex Mail.ru

Guns N Roses - Pretty Tied Up - аккорды и текст, таба, бас-таба, видео

Печатать
Просмотров: 178
Авторы: Izzy Stradlin

Pretty Tied Up
Guns N Roses



Date: Tue, 26 Jun 2001 15:42:50 -0400
From: patrizia rohr 
Subject: g/guns_n_roses/pretty_tied_up.crd
Date: Tue, 29 Apr 2003 17:57:07 +0550
correction From: Bhushan Danani 

Song: pretty tied up
artist: guns n roses
album:Use your illusion 2


Pretty tied up
Guns n ' roses
Use your Illusion II

Tabbed by    Patrizia Rohr
please send any comments or corrections at   
patslash@yahoo.com

I still haven't worked out the solo and the third
chorus..
Anyway here it is...Hope you enjoy it   

tune all strings 1/2 step down

intro

e|----------------0-------------------------
B|----------2--3----3--2--3--2--------------
G|----2--3----------------------3--2--------
D|------------------------------------------
A|------------------------------------------
E|------------------------------------------


e|------------------------------------------
B|------------------------------------------   play it whenever
G|-----------------3p2-----------------3p2--   you find D5
D|--0--0--0--0--0--0----0--0--0--0--0--0----
A|------------------------------------------
E|------------------------------------------


verse 1
D5 
I ...
D5 
She ..
G5               B5        D5
Friday night is goin' ...
G5                              F#5      E5     D5
Well crack the whip cos that bitch  ...


CHORUS

D5     A5     C5                C5   G5
She's pretty tied up hangin' upside down
D5     A5     C5                 C5   G5
She's pretty tied ...
D5     A5     C5                C5   G5
She's pretty tied up hangin' upside down

correction...
shes        pretty tied up..     hangin    upside down
E--5-5----------------------------------------------5
A--7-7------------3---------5----5-----3---5---3----7
D--7-7------------5---------7----7-----5---7---5----7
G-----------------5---------7----7-----5---7---5-----
B---------------------------------------------------
e---------------------------------------------------


F5             G5                             D5
Oohhh I can't tell ...
no

after chorus comes this:

e|------------------
B|----7-------------
G|-------7----------
D|----------2--5----
A|------------------
E|------------------


that's all for now    :)


Добавлено: 17.11.2013
Другие материалы по этой песне:

Страница создана 03.03.2012
http://primanota.ru/guns-n-roses/pretty-tied-up-chords.htm
Привет, Гость.
Предлагаем пройти революционный курс по гитаре.
Подарок от PrimaNota.Ru, забирай!