PrimaNota.ru - самый крупный в мире бесплатный архив песенных текстов, аккордов, табулатур и нот


Guns N Roses - Greatest Hits (album) - таба, видео

Регистрация Запомнить меня
Войти через:  Facebook Google Twitter Vk Yandex Mail.ru

Guns N Roses - Greatest Hits (album) - таба, видео

Печатать
Просмотров: 193
Уроки эстрадного вокала в Санкт-Петербурге
Band- Guns N' Roses
Album- Greatest Hits

1.Welcome To The Jungle
2.Sweet Child O' Mine
3.Patience
4.Paradise City
5.Knockin' On Heaven's Door
6.Civil War
7.You Could Be Mine
8.Don't Cry
9.November Rain
10.Live And Let Die
11.Yesterdays
12.Ain't It Fun
13.Since I Don't Have You
14.Sympathy For The Devil

1.WELCOME TOTHE JUNGLE

Intro: Gtr.1 w/delay (see recomendations at bootom):
                                /-----call this Riff A------\
E|-----------------------------|-----------------------------|
B|-----------------------------|-----------------------------|
G|---4-------4---------4-4-4---|--4--4-2--2-----------------:|
D|-----------------------------|------------4--4-2--2--0----:|
A|-----------------------------|--------------------------2--|
E|-----------------------------|-----------------------------|
  \--------only once----------/ \----repeat this 2 times----/

Guitar 2 & 3 starts here, with Gtr. 1 Riff A seven more times
               (Play Guitar 1 Riff A until the last E5 chord)

Gtr.2: Play these Power chords B5 A5 G5 E5 B5 A5 E5            \
                                                               / 
     B5       A5         G5      E5      B5   A5  E5 D5  A5    \
E|----------------------------------------------------------|  /
B|----------------------------------------------------------|  \
G|---4--4--------------------------------4------------7-----|  /
D|---4--4-----7--7-------5--5----2--2----4----7---2---7--7--|  \ play this,
A|---2--2-----7--7-------5--5----2--2----2----7---2---5--7--|  / riffs at
E|------------5--5-------3--3----0--0---------5---0------5--|  \ the same
                                                               / time in
Gtr.3:                                                         \ guitar
E|--------------------------------------7--7/5--5-0---------|  / 1, 2 & 3
B|--------------------------------------7--7/5--5-0---7--5--|  \
G|------------7-9-9fb---7qb---------------------------7--6--|  /
D|---7h9--9-------------------7h9--9s2----------------7--7--|  \
A|-------------------------------------------------------0--|  /
E|----------------------------------------------------------|  \


Gtr.2: (faster Gtr 2. & 3 = Tempo=124)
     B5        B5      B5      B5       B5     B5   B5     \
E|------------------------------------------------------|  /
B|------------------------------------------------------|  \
G|---4---------4-------4-------4--------4------4----4---|  /
D|---4---------4-------4-------4--------4------4----4---|  \ 
A|---2---------2-------2-------2--------2------2----2---|  / play this
E|------------------------------------------------------|  \ riffs at the
                                                           / same time
Gtr.3:                                                     \ in both
E|-------------------------------------5--5-------------|  / guitars
B|-----------------------3---5-----5hb----5hb---3-------|  \
G|----------------2--4------------------------------4\--|  /
D|---------2--4-----------------------------------------|  \
A|--2--4------------------------------------------------|  /
E|------------------------------------------------------|  \

Verse (same time in guitar 1, 2 & 3)

Gtr.1:    P.M.     P.M.                       Palm mute    \
E|--------------------------|---------------------------|  /
B|--------------------------|---------------------------|  \
G|--2------2--2--0----------|--2-x-x-----2-2--0---------|  /
D|--2------2--2--0----------|--2-x-x-----2-2--0---------|  \ 
A|--0------0--0-----------0-|--0-x-x-----0-0----------0-|  /
E|----3hb-----------3--2----|--------3hb--------3--2----|  \
                                                           / Play this
Gtr.2:                                                     \ two times
E|--------------------------|---------------------------|  /
B|--------------------------|---------------------------|  \
G|--------------------------|---------------------------|  /
D|--------------------------|---------------------------|  \
A|-7--7--5--7--7--7-5--4--2-|-7--7--5--7--7--7--5--4--2-|  /
E|-5--5--3--5--5--5-3--2--0-|-5--5--3--5--5--5--3--2--0-|  \
                                                           /
Gtr.3: play an A barrechord over main riff                 \

Gtr.1:                                                                     \
E|--------------------x--5--------------------|-------------------------|  /
B|--------------------------------------------|-------------------------|  \
G|---2-----------x----------------------------|--2-x-x-----2-2--0-------|  /
D|---2-----------x----------------------------|--2-x-x-----2-2--0-------|  \ 
A|---0-----0-----x------------------3p0-------|--0-x-x-----0-0--------0-|  /
E|----------------------------------------2---|--------3hb--------3-2---|  \
                                                                           / Play this
Gtr.2:                                                                     \ one time
E|--------------------------------------------|-------------------------|  /
B|--------------------------------------------|-------------------------|  \
G|-7fb5-----7--5hb----------------------------|-------------------------|  /
D|-------7---------7-5------------------------|-------------------------|  \
A|----------------------7--6--5\3--5--3-------|-0-0-----0-0-------------|  /
E|---------------------------------------5--3-|-----3hb-----3hb--2--0-0-|  \
                                                                           /
Gtr.3: play an A barrechord over main riff                                 \

In the part 'We are the people that can find...' play:

Gtr.1:    P.M.     P.M.                       Palm mute    \
E|--------------------------|---------------------------|  /
B|--------------------------|---------------------------|  \
G|--9--9--7-x-9--9----------|--2-x-x-----2-2--0---------|  /
D|--9--9--7-x-9--9--7--6--4-|--2-x-x-----2-2--0---------|  \ 
A|--7--7--5-x-7--7--5--4--2-|--0-x-x-----0-0----------0-|  /
E|--------------------------|--------3hb--------3--2----|  \
                                                           /
Gtr.2:                                                     \
E|--------------------------|---------------------------|  /
B|--------------------------|---------------------------|  \
G|--------------------------|---------------------------|  /
D|--------------------------|---------------------------|  \
A|-7--7--5--7--7--7-5--4--2-|-7--7--5--7--7--7--5--4--2-|  /
E|-5--5--3--5--5--5-3--2--0-|-5--5--3--5--5--5--3--2--0-|  \
                                                           /
Gtr.3: play an A barrechord over main riff                 \

chorus:
          C   C/B  C/A    C/G       D     D/C#     D/B      D/A
In the jun-gle,  wel-come to the jun-gle watch it bring you to your
E|----------------------------------------------------------------|
B|----------------------------------------------------------------|
G|--------5-------------------------7-----------------------------|
D|--------5-------------------------7-----------------------------|
A|--------3----2--------------------5------4----------------------|
E|------------------5------3-----------------------7---------5----|

   E5
        sha na na na na na...
E|-------------------------------|
B|-------------------------------|
G|--9--9-------------------------|  three
D|--9--9-------------------------|  times
A|--7--7--5----------------------|
E|-----------6--6--6\5--5--3--0--|

And then: I wanna watch you bleed
E|-----------------------------------------|
B|-----------------------------------------|
G|-----------------------------------------|
D|-----------------------------------------|
A|--------7----5---------------------------|
E|-----------------------6------5---3---4--|

 Solo 1 (w/ad lib vocals):
|------------------------------------------------------------------------|
|----------------------------------12-----------15~--------------15--15~~|
|--12/13-------------13---13~(13)--12--13-x-x---16~--12/11-------13--13~~|
|--11/12-----(12)-14-14---14~(14)------14-x-x--------13/12---------------|
|------------------------------------------------------------------------|
|---------0------------------------------------------------0--0----------|

|--------------------------15--15--------------19fb----19-18-17fb--15-16-|
|~~~(15)p12---14/15--------15--15-----------17---------------------------|
|~~~(13)------15/16----------------6/0--/18------------------------------|
|------------------------------------------------------------------------|
|------------------------------------------------------------------------|
|------------------------------------------------------------------------|

|------------------------------------------------------------------------|
|-15~---(15)\---15fb--(15)-15p12-----------------------------------------|
|---------------------------------14fb--14hb(14)p12--14-12---------------|
|-----------------------------------------------------------14-14--------|
|-----------------------------------------------------------------13-13--|
|------------------------------------------------------------------------|

|--------------------------A.H.------------------------------------------|
|------------------------------------------------------------------------|
|--------------------------8hb-------------------------------------------|
|----------------------------------------------11\-----------------------|
|-12fb-(12)p10-----------------------------------------------------------|
|---------------12-------------------------------------------------------|

 After chorus come this:
   D          G                    D                G
|-------------3-----(3)\-------------------------------------------------|
|--7----------3-----(3)\---6hb-----7---8p7----------12--13p12----------8-|
|--7----------4-----(4)\---4hb-----7---7------------12---------7\5--5----|
|--7----5-----5-----(5)\-----------7---7----7---10--12-------------------|
|--5----3-----5-----(5)\-----------5-------------8--10-------------------|
|-------------3-----(3)\-------------------------------------------------|

 D                     G                        D                 D7
     And when...     high    you never              ever want to come down
|------------------------------------------------------------------------|
|-7-------------------12---13p12---------10\7---7------------------------|
|---7-----------------12------------------------7------------------------|
|-----7--6--7----10---12---------12p10---10\7---7-----------------10-----|
|-----------------8---10-------------------------------------------8-----|
|------------------------------------------------------------------------|

G        F     G     F     G     F    A                E (hold chord)
       suck  down  suck  down  suck  down              Yeah!

 Pre-solo:
|------------------------------------------------------------------------|
|------------------------------------------------------------------------|
|-------6/7-------------9-------9-----9---6/7------------------12---12---|
|-------5/6-------------9-------9-----9---5/6------------------12---12---|
|------------------------------------------------------------------------|
|---0---------0----0---------0-------------------0-------0---------------|

|------------------------------------------------------------------------|
|------------------------------------------------------------------------|
|-------6/7-------------9-------9-----9---6/7------------------12---12---|
|-------5/6-------------9-------9-----9---5/6------------------12---12---|
|------------------------------------------------------------------------|
|---0---------0----0---------0-------------------0-------0---------------|

 Solo 2:
|--------------------------------------------------------------------------|
|--------------------------------------------------------------------------|
|-----------------------------------------------9hb-----------11fb--(11)---|
|---------------------------------9-9hb-11-(11)---------11-----------------|
|--------7----9fb--(9)----7-7-9/11-----------------------------------------|
|--9--------9--------------------------------------------------------------|

|----------------------------------------------------------------------0---|
|-------------------------------12-(12)-------12--------------------5--5---|
|--(11)----11fb(11)p9-----9hb---11-(11)-------11-(11)p9------------6-6-----|
|----------------------11-------------------------------11-9-(9)/6---------|
|--------------------------------------------------------------------------|
|--------------------------------------------------------------------------|

|--(0)--0--0--0------------------------------------------------------------|
|--(5)--3--2--0---2hb--2hb--0----0----0--(0)--0--0--0--0--2--4-------------|
|-----------------2hb--2hb--0--1-1--2-4--(4)--4--2--2--1--2--4-------------|
|---------------------------------------------------------4--4--2fb(2)p0-2-|
|--------------------------------------------------------------------------|
|--------------------------------------------------------------------------|

|--------------------------------------------------------------------------|
|---------15-15fb-(15)-15fb(15)--------------------------------14\12-------|
|-/4----------------------------14fb-14fb--14fb(14)p12----------------6hb--|
|-/4--/12-----------------------------------------------14-12--14\12-------|
|--------------------------------------------------------------------------|
|--------------------------------------------------------------------------|

|--------------------------------------------------------------------------|
|--------------------------------------------------------------------------|
|--(6)--4------------------------------------------------------------------|
|----------6hb------4------------------------------------------------------|
|---------------------4-(4)--2---------------------------------------------|
|------------------------------4hb----0--2----------------------------(2)--|

Finish this way:
    E5  D5   B5  A5  G5  E5   A   G   E       E7#9  
|----------------------------------------------3-----(3)\----------------|
|----------------------------------------------3-----(3)\----------------|
|---9---7---------------------6---4---1--------1-----(1)\----------------|
|---9---7----8----7---5-------7---5---2--------2-----(2)\----------------|
|---7---5----8----7---5-------7---5---2--------2-----(2)\----------------|
|------------6----5---3---0---5---3---0--------0-----(0)\*---------------|
                                              * Slowly detune low E string

2.SWEET CHILD O' MINE

E:|--------------15----14-----|--------------15----14-----|
B:|-----15--------------------|-----15--------------------|
G:|--------14-12----14----14--|--------14-12----14----14--|
D:|--12-----------------------|--12-----------------------|
A:|---------------------------|---------------------------|
E:|---------------------------|---------------------------|

E:|--------------15----14-----|--------------15----14-----|
B:|-----15--------------------|-----15--------------------|
G:|--------14-12----------14--|--------14-12----------14--|
D:|--14-----------------------|--14-----------------------|
A:|---------------------------|---------------------------|
E:|---------------------------|---------------------------| 
                                
E:|--------------15----14-----|--------------15----14-----|
B:|-----15--------------------|-----15--------------------|
G:|--12----14-12----14----14--|--12----14-12----14----14--|
D:|---------------------------|---------------------------|
A:|---------------------------|---------------------------|
 
E:|--------------15----14-----|--------------15----14-----|
B:|-----15--------------------|-----15--------------------|
G:|--------14-12----14----14--|--------14-12----14----14--|
D:|--12-----------------------|--12-----------------------|
A:|---------------------------|---------------------------|
E:|---------------------------|---------------------------|

E:|--------------15----14-----|--------------15----14-----|
B:|-----15--------------------|-----15--------------------|
G:|--------14-12----------14--|--------14-12----------14--|
D:|--14-----------------------|--14-----------------------|
A:|---------------------------|---------------------------|
E:|---------------------------|---------------------------| 
                                
E:|--------------15----14-----|--------------15----14-----|
B:|-----15--------------------|-----15--------------------|
G:|--12----14-12----14----14--|--12----14-12----14----14--|
D:|---------------------------|---------------------------|
A:|---------------------------|---------------------------|

E:|--------------15----14-----|--------------15----14-----|
B:|-----15--------------------|-----15--------------------|
G:|--------14-12----14----14--|--------14-12----14----14--|
D:|--12-----------------------|--12-----------------------|
A:|---------------------------|---------------------------|
E:|---------------------------|---------------------------|
 








    
E:|--------------15----14-----|--------------15----14-----|
B:|-----15--------------------|-----15--------------------|
G:|--------14-12----14----14--|--------14-12----14----14--|
D:|--12-----------------------|--12-----------------------|
A:|---------------------------|---------------------------|
E:|---------------------------|---------------------------! 
    
E:|--------------15----14-----|--------------15----14-----|
B:|-----15--------------------|-----15--------------------|
G:|--------14-12----------14--|--------14-12----------14--|
D:|--14-----------------------|--14-----------------------|
A:|---------------------------|---------------------------|
E:|---------------------------|---------------------------

E:|--------------15----14-----|--------------15----14-----|
B:|-----15--------------------|-----15--------------------|
G:|--12----14-12----14----14--|--12----14-12----14----14--|
D:|---------------------------|---------------------------|
A:|---------------------------|---------------------------|
E:|---------------------------|---------------------------< 



E:|--12------------12----14---|--15----14----12---------------14---|
B:|---------15----------------|---------------------15--------15---|
G:|-----14------14----14---14-|-----14----14----14------14----14---|
D:|---------------------------|------------------------------------| 
A:|---------------------------|------------------------------------| 
E:|---------------------------|------------------------------------| 
Verse 1:  


E:|-10------------------------|---------8--------------------------|
B:|-10------------------------|---------8--------------------------|
G:|-11------------------------|---------9--------------------------|
D:|-12------------------------|---------10-------------------------| 
A:|---------------------------|------------------------------------| 
E:|---------------------------|------------------------------------| 
  
1-She's got a smile that it seems to me reminds me of child hood 


E:|--10p8------------------|--3-------------|-3-------3------------|
B:|-----------8-------(8)/-|--3-------------|----3-----------3-----|
G:|------------------------|--0-------------|-------0------------0-|
D:|------------------------|--5-------------|----------------------| 
A:|------------------------|----------------|----------------------| 
E:|------------------------|----------------|----------------------|

       memories,    where everything was as fresh as the bright blue sky.


E:|--2-------2----------3p2---|---------------0----------------2---|
B:|--3-------3----------3-----|-------3---------------3------------|
G:|--2-------2----------2-----|-----------2----------------2-------|
D:|--0-------0----------0-----|--0---------------------------------| 
A:|---------------------------|------------------------------------| 
E:|---------------------------|------------------------------------|

                               Now and then___        when I            

E:|-----------2--3--3--2--0---|-------------------0----------------|
B:|---3----------------------3|-----------3----------3----3--------|
G:|------2--------------------|------0-------0---------------0----0|
D:|---------0-----------------|--------2--------2------------------| 
A:|---------------------------|---3---------------------3-------3--| 
E:|---------------------------|------------------------------------|

   see her face she takes me away to that special place, and if I


E:|----------------------0----------0------------------3--------2--|
B:|---------3------3-------3---3------3-----3-----3----3--3-----3--|
G:|--------------0---0-------0----------0-----2-----2--2----2---2--|
D:|-----0-----0---------------------------0-----0---------------0--| 
A:|----------------------------------------------------------------| 
E:|-3--------------------------------------------------------------|

Stared too long I'll  probably break down and cry__________________


Chorus: 
 
E:|---------------------------|--------------12----10-----|
B:|-----14-------15----14-----|-----13--------------------|
G:|--------14-------14----14--|--------12-10----12----12--|
D:|-----------14--------------|--10-----------------------|
A:|---11----------------------|---------------------------|
E:|---------------------------|---------------------------| 
  |                           |                           |
E:|---------------------------|---------------------------|
B:|---------------------------|---------------------------|
G:|---2------2-------2--4-----|--5-------5----------------|
D:|---2------2-------2--4-----|--5-------5----------------| 
A:|---0------0-------0--2-----|--3-------3----------------| 
E:|---------------------------|---------------------------|

  Whoa                  Whoa    Whoa____, sweet child  o'mine
   
E:|--------------15----14-----|--------------15---14-----|
B:|-----15--------------------|-----15-------------------|
G:|--------14-12----14----14--|--------14-12---14----14--|
D:|--12-----------------------|--12----------------------|
A:|---------------------------|--------------------------|
E:|---------------------------|--------------------------| 
  |                           |                          |				 
E:|-2----------------------2--|-3---2---0---2------------|
B:|-3----------------------3--|-3---3---3---2------------|
G:|-2----------------------2--|-2---2---2---3------------|
D:|-0----------------------0--|-0---0---0---0------------| 
A:|---------------------------|--------------------------| 
E:|---------------------------|--------------------------|


E:|---------------------------|--------------12----10----|
B:|-----14-------15----14-----|-----13-------------------|
G:|--------14-------14----14--|--------12-10----12----12-|
D:|-----------14--------------|---10---------------------|
A:|---11----------------------|--------------------------|
E:|---------------------------|--------------------------|
  |                           |                          |
E:|-2----------------------2--|-3---2---0---2------------|
B:|-3----------------------3--|-3---3---3---2------------|
G:|-2----------------------2--|-2---2---2---3------------|
D:|-0----------------------0--|-0---0---0---0------------| 
A:|---------------------------|--------------------------| 
E:|---------------------------|--------------------------|

  Whoa        oh  oh       sweet love of  mine




E:|---------------------------|---------------------------|
B:|--------15-----------------|---------------------------|
G:|--12s14--------------------|---------------------------|
D:|---------------------------|---------------------------|
A:|---------------------------|---------------------------|
E:|---------------------------|---------------------------|
  |                           |                           |			 
E:|-2----------------------2--|-3---2---0---2-------------|
B:|-3----------------------3--|-3---3---3---2-------------|
G:|-2----------------------2--|-2---2---2---3-------------|
D:|-0----------------------0--|-0---0---0---0-------------| 
A:|---------------------------|---------------------------| 
E:|---------------------------|---------------------------|

FILL1:

E:|-------------------------------------------------------------
B:|---10---8--7-----10--8--7----10---8------10---8-----10-\-8---
G:|-------------------------------------9------------9----------|
D:|-------------------------------------------------------------|
A:|-------------------------------------------------------------|
E:|-------------------------------------------------------------|

E:|------------------10--10^--(10)---------------|
B:|-10-^-(10)8--10-^--------------full-----------|
G:|--------------------------------9-^-----------|
D:|----------------------------------------------|
A:|----------------------------------------------|
E:|----------------------------------------------|

Verse 2:

E:|-10------------------------|---------8--------------------------|
B:|-10------------------------|---------8--------------------------|
G:|-11------------------------|---------9--------------------------|
D:|-12------------------------|---------10-------------------------| 
A:|---------------------------|------------------------------------| 
E:|---------------------------|------------------------------------| 
  
2- She's got eyes of the bluest skies, as if they thought of rain___ 


E:|--10p8------------------|--3-------------|-3-------3------------|
B:|-----------8-------(8)/-|--3-------------|----3-----------3-----|
G:|------------------------|--0-------------|-------0------------0-|
D:|------------------------|--5-------------|----------------------| 
A:|------------------------|----------------|----------------------| 
E:|------------------------|----------------|----------------------|

_________________________I'd hate to look into those eyes    and                             


E:|--2-------2----------3p2---|---------------0----------------2---|
B:|--3-------3----------3-----|-------3---------------3------------|
G:|--2-------2----------2-----|-----------2----------------2-------|
D:|--0-------0----------0-----|--0---------------------------------| 
A:|---------------------------|------------------------------------| 
E:|---------------------------|------------------------------------|

  See an ounce of pain        Her hair reminds    me   of     a ____
        

E:|-----------2--3--3--2--0---|-------------------0----------------|
B:|---3----------------------3|-----------3----------3----3--------|
G:|------2--------------------|------0-------0---------------0----0|
D:|---------0-----------------|--------2--------2------------------| 
A:|---------------------------|---3---------------------3-------3--| 
E:|---------------------------|------------------------------------|

   Warm   safe  place  whre as a child I'd hide,________________and_


E:|----------------------0----------0------------------3--------2--|
B:|---------3------3-------3---3------3-----3-----3----3--3-----3--|
G:|--------------0---0-------0----------0-----2-----2--2----2---2--|
D:|-----0-----0---------------------------0-----0---------------0--| 
A:|----------------------------------------------------------------| 
E:|-3--------------------------------------------------------------|

Pray__for the thunder  and the rain to quietly pass me by___________


Chorus: 
 
E:|---------------------------|--------------12----10-----|
B:|-----14-------15----14-----|-----13--------------------|
G:|--------14-------14----14--|--------12-10----12----12--|
D:|-----------14--------------|--10-----------------------|
A:|---11----------------------|---------------------------|
E:|---------------------------|---------------------------| 
  |                           |                           |
E:|---------------------------|---------------------------|
B:|---------------------------|---------------------------|
G:|---2------2-------2--4-----|--5-------5----------------|
D:|---2------2-------2--4-----|--5-------5----------------| 
A:|---0------0-------0--2-----|--3-------3----------------| 
E:|---------------------------|---------------------------|

  Whoa                  Whoa    Whoa____, sweet child  o'mine
   
E:|--------------15----14-----|--------------15---14-----|
B:|-----15--------------------|-----15-------------------|
G:|--------14-12----14----14--|--------14-12---14----14--|
D:|--12-----------------------|--12----------------------|
A:|---------------------------|--------------------------|
E:|---------------------------|--------------------------| 
  |                           |                          |				 
E:|-2----------------------2--|-3---2---0---2------------|
B:|-3----------------------3--|-3---3---3---2------------|
G:|-2----------------------2--|-2---2---2---3------------|
D:|-0----------------------0--|-0---0---0---0------------| 
A:|---------------------------|--------------------------| 
E:|---------------------------|--------------------------|



E:|---------------------------|--------------12----10----|
B:|-----14-------15----14-----|-----13-------------------|
G:|--------14-------14----14--|--------12-10----12----12-|
D:|-----------14--------------|---10---------------------|
A:|---11----------------------|--------------------------|
E:|---------------------------|--------------------------|
  |                           |                          |
E:|-2----------------------2--|-3---2---0---2------------|
B:|-3----------------------3--|-3---3---3---2------------|
G:|-2----------------------2--|-2---2---2---3------------|
D:|-0----------------------0--|-0---0---0---0------------| 
A:|---------------------------|--------------------------| 
E:|---------------------------|--------------------------|

  Whoa        oh  oh       sweet love of  mine




E:|---------------------------|---------------------------|
B:|--------15-----------------|---------------------------|
G:|--12s14--------------------|---------------------------|
D:|---------------------------|---------------------------|
A:|---------------------------|---------------------------|
E:|---------------------------|---------------------------|
  |                           |                           |			 
E:|-2----------------------2--|-3---2---0---2-------------|
B:|-3----------------------3--|-3---3---3---2-------------|
G:|-2----------------------2--|-2---2---2---3-------------|
D:|-0----------------------0--|-0---0---0---0-------------| 
A:|---------------------------|---------------------------| 
E:|---------------------------|---------------------------|

 


  FILL 2: 
E:|-------------------------------------------------------------|
B:|---10---8--7-----10--8--7----10---8------10---8-----10-\-8---|
G:|-------------------------------------9------------9----------|
D:|-------------------------------------------------------------|
A:|-------------------------------------------------------------|
E:|-------------------------------------------------------------|

E:|--------------------------------10--------------------|
B:|-10-\-8-7hb--(7)----7-^------------(7)-----10----8--7-|
G:|------------------7-----------------------------------|
D:|------------------------------------------------------|
A:|------------------------------------------------------|
E:|------------------------------------------------------|

E:|------------------------10----10-\-8-------/12--------|
B:|-10---8----7-----/10-^--------------------------------|
G:|------------------------------------------------------|
D:|------------------------------------------------------|
A:|------------------------------------------------------|
E:|------------------------------------------------------|




E:|--12---12-\-10---10-(10)\-8---7-^--(7)----------------|
B:|-----------------------------------------8------------|
G:|---------------------------------------------7-~~~~~~~|
D:|------------------------------------------------------|
A:|------------------------------------------------------|
E:|------------------------------------------------------|

E:|-----------------------10---10-^--(10)-------------17----(17)|
B:|-10-^--(10)p8---10-^-------------------17-^---(17)-------(17)|
G:|-------------------------------------------------------------|
D:|-------------------------------------------------------------|
A:|-------------------------------------------------------------|
E:|-------------------------------------------------------------|

THIS IS FILL 3:
CHORUS:A5 C5 D5(FILL 3)
       A5 C5 D5
       A5 C5 D5(FILL 3)

       A5 C5 D5 D5 D5 D5 
E:|-----------------------------|
B:|--7hb------------------------|
G:|------7----------------------|
D:|--------7--5-/-4---0---------|
A:|----------------------3^-----|
E:|-----------------------------|


 
 SOLO:

E:|-17^--hold----15--14--h15p14-----------15--14--h15p14-----------12--14-|
B:|-----------------------------17-----------------------17-16------------|
G:|-----------------------------------------------------------------------|
D:|-----------------------------------------------------------------------|
A:|-----------------------------------------------------------------------|
E:|-----------------------------------------------------------------------| 


E:|-----------------------------------------------------------------------|
B:|--15^--12----------------------------------------13-12-------h13p12\10-|
G:|----------14^--12--11h12----------------11-12-14-----------------------|
D:|-----------------------------14-----14---------------------------------|
A:|-----------------------------------------------------------------------|
E:|-----------------------------------------------------------------------|


E:|---------------------------------------------15^-----------------------|
B:|--13^-----13-----12--12-(12)-------12^----------------7^^--------------|
G:|-----------------------------------------14-----------------9--9-------|
D:|-----------------------------------------------------------------------|
A:|-----------------------------------------------------------------------|
E:|-----------------------------------------------------------------------|

E:|-----------------------------------------------------------------------|
B:|-----7^----------------------------------------------------------------|
G:|----------9--9-----8^----8/11---------11^---9-----------------9--------|
D:|-----------------------------------------------9^---7---9--------------|
A:|-----------------------------------------------------------------------|
E:|-----------------------------------------------------------------------|

E:|-----------------------------------------------------------------------|
B:|--------7h8--p7---------------------------------------------7^---7-10^-|
G:|----------------------9------8^-----8------/11-----9^--8-9-----9-------|
D:|-----------------------------------------------------------------------|
A:|-----------------------------------------------------------------------|
E:|-----------------------------------------------------------------------|

E:|-7-8p7-11p7-8-11-12/14-11-12--14/15-12-14-15p14-12----14p11-12h14p12---|
B:|---------------------------------------------------15----------------15|
G:|-----------------------------------------------------------------------|
D:|-----------------------------------------------------------------------|
A:|-----------------------------------------------------------------------|
E:|-----------------------------------------------------------------------|

This par uses wah wah 

E:|-17--------------------------------------------------------------------|
B:|----15^---15^---15^---15^---15^-p12-----15^----15^--------15^-p12------|
G:|------------------------------------14----------------------------14---|
D:|-----------------------------------------------------------------------|
A:|-----------------------------------------------------------------------|
E:|-----------------------------------------------------------------------|

E:|----------------------------------15-----------------------------------|
B:|--17^---17^--------17^----17^----------17^---------17^-p15--15h17------|
G:|-------------------17^-------------------------------------------------|
D:|-----------------------------------------------------------------------|
A:|-----------------------------------------------------------------------| 
E:|-----------------------------------------------------------------------| 

E:|-----------12----------------------------------------------------------|
B:|-15^------------15---12------------------------------------------------|
G:|---------------------------14^-p12-14---12-14----12--14^----12--14--12-|
D:|-----------------------------------------------------------------------|
A:|-----------------------------------------------------------------------|
E:|-----------------------------------------------------------------------|

E:|----15-------------15-----15-----15------------------------------------|
B:|----15-------15----15-----15-------15----------------------------------|
G:|-14^--14--12-14^-----14^----14^------14^-p12----14p12--x-x----12^------|
D:|---------------------------------------------14--------x-x-------------|
A:|-----------------------------------------------------------------------|
E:|-----------------------------------------------------------------------|

E:|-----------------------------------------------------------------------|
B:|-----------------------------------------------------------------------|
G:|-----------------12h14p12----12^--------------------12h14p12-----12-12-|
D:|-14p12-14----x-x----------14--------14p12-14----x-x----------14--------|
A:|-----------------------------------------------------------------------|
E:|-----------------------------------------------------------------------|


E:|----------------------------------------------12-12-------15-15p12--15-|
B:|-------------------12-12-------15-15p12-------------15p12--------------| 
G:|-------14-14p12-14-------14p12-----------------------------------------| 
D:|-14p12-----------------------------------------------------------------| 
A:|-----------------------------------------------------------------------|
E:|-----------------------------------------------------------------------| 

E:|-14----12h15p12---------12-----------12-----------12-----------12------|
B:|----15----------15--15^----15p12--------15p12-15^----15p12--------15p12| 
G:|----------------------------------14^-----------------------14^--------|
D:|-----------------------------------------------------------------------|
A:|-----------------------------------------------------------------------|
E:|-----------------------------------------------------------------------|

E:|------12-----------12-----------12--------------12-------15^-----------|
B:|--15^----15p12--------15p12-15^----15p12-----12----15p12---------------|
G:|---------------14^-----------------------14^---------------------------|
D:|-----------------------------------------------------------------------|
A:|-----------------------------------------------------------------------|
E:|-----------------------------------------------------------------------|

E:|--------------------15------12h15p12----12------12---------------------|
B:|-------------------------------------15-----15^-----15p12--------------|
G:|-----------------------------------------------------------14^-p12-14^-|
D:|-----------------------------------------------------------------------|
A:|-----------------------------------------------------------------------|
E:|-----------------------------------------------------------------------|

E:|---------------------------------------------------|
B:|-------15------------------------------------------|
G:|----------14^-p12-14^----14p12--------------12-----|
D:|----------------------14-------14------------------|
A:|---------------------------------------------------|
E:|---------------------------------------------------|

Following vocals ad lib over E  F#  G  A  B  C  D  G chord sequence 
Where do we go?_____ Where do we go_____now? 
Where do we go?_____ Where do we go?______ 
Where do we go____now?_____ Where do we go?______ 
Where do we go?_____  CHILD ! 
Where do we go____now? Where do we go______now, 
Now?_________________Where do  we go?

ENDING :
|--------------------------------------------------------------------|
|-----------------------------------------------------------------9--|
|---------------------------------------------------------------9----| 
|--14-/-9----9/5---------------------------------------------9-------|
|---------------------10-/-7-/-2---------------------------7---------|
|-------------------------------------5-/-3hb---3-/-0----------------|

3.PATIENCE

Quarter=120=----
  
>C---------------|----------------|G---------------|----------------|
>                |                |                |                |
>------0---0-----|----------------|----------------|----------------|
>------1---1-1-1-|3p1-1-0h1-1-1p0-|------0---------|1p0-------------|
>----0-------0-0-|0---0-0---0-0---|----0-----0-----|----0-2p0---0h2-|
>2-2---------2-2-|2---2-2---2-2---|--0---------0---|----------0-0h2-|
>3-----------3-3-|3---3-3---3-3---|2-------------2-|----------------|
>----------------|----------------|----------------|----------------|
>
>
>
>Av--------------|----------------|D---------------|----------------|
>                |                |                |                |
>----------------|----------------|2---2---2-2-----|3p2-2-0---2-----|
>----2---------0-|3p2---0h2-2-----|3-3---3-----3-3-|3---3-3---3-----|
>------2---2-----|----2-0h2-2-2-0-|2-------------2-|2---2-2---2-----|
>--------2---2---|----2-------2-0-|0-------------0-|0---0-0---0-----|
>0---------------|----------------|----------------|------------0-2-|
>----------------|----------------|----------------|----------------|
>                |                |                |                |
>----------------|----------------|----------------|----------------|
>----------------|----------------|----------------|----------------|
>----------------|----------------|----------------|------------7---|
>----------------|----------------|----------------|----------------|
>----------------|----------------|----------------|----------------|
>----------------|----------------|----------------|----------------|
>
>
>
>C---------------|----------------|G---------------|----------------|
>                |                |                |                |
>------0---0-----|----------------|----------------|----------------|
>------1---1-1-1-|3p1-1-0h1-1-1p0-|------0---------|1p0-------------|
>----0-------0-0-|0---0-0---0-0---|----0-----0-----|----0-2p0---0h2-|
>2-2---------2-2-|2---2-2---2-2---|--0---------0---|----------0-0h2-|
>3-----------3-3-|3---3-3---3-3---|2-------------2-|----------------|
>----------------|----------------|----------------|----------------|
>                |                |                |                |
>----------------|----10----------|--7-8-9-10------|----------------|
>8-------------8-|1012--10--8-108-|10^-------10^-8-|------------10--|
>----------------|------**--------|----------------|--------------9-|
>----------------|----------------|----------------|----------------|
>----------------|----------------|----------------|----------------|
>----------------|----------------|----------------|----------------|
>
>
>Av--------------|----------------|D---------------|----------------|
>                |                |                |                |
>----------------|----------------|2---2---2-2-----|3p2-2-0---2-----|
>----2---------0-|3p2---0h2-2-----|3-3---3-----3-3-|3---3-3---3-----|
>------2---2-----|----2-0h2-2-2-0-|2-------------2-|2---2-2---2-----|
>--------2---2---|----2-------2-0-|0-------------0-|0---0-0---0-----|
>0---------------|----------------|----------------|------------0-2-|
>----------------|----------------|----------------|----------------|
>                |                |                |                |
>------------7s8s|9---------------|--10----8-----7-|----7s5---------|
>10--------------|----------------|----------------|8---------------|
>------------7s8s|9---------------|11----9-----7---|--7--s5---------|
>----------------|----------------|----------------|----------------|
>----------------|----------------|----------------|----------------|
>----------------|----------------|----------------|----------------|
>
>
>
>C---/---/-/-/-G6|G-/-/-/-/-/-/-/-|C---/-/-/-/-/-G6|Em--/-/-/-/-/-G6|
>                |                |                |                |
>------0---------|----------------|----------------|----------------|
>----1---3p1-----|----------------|------1---------|----------------|
>--0-----------0-|------0---------|----0---0-------|------0---------|
>2-----------2---|----0-----0-----|--2-------2-----|----2-----------|
>3---------------|--2---------2---|3---------------|--2-------------|
>----------------|3-------------3-|------------3-2-|0---------------|
>
>
>C---/-/-/-/-/-G6|G---/-/-/-/-/-G6|D---------------|----------------|
>                |                |                |                |
>----------------|----------------|------2---------|----------------|
>------1---------|--------0-------|3---------------|----------------|
>----0---0-------|------0---0-----|2---------------|----------------|
>--2-------2-----|----0-------0---|0---------------|----------------|
>3-----------3-2-|2-2-------------|----------------|----------------|
>----------------|3---------------|----------------|----------------|
>
>
>
>
>    Shed a tear...
>----------------|----------------|----------------|----------------|
>------1---1-1-1-|3p1---0---1-----|----------------|----------------|
>----0-----0-0-0-|0-----------0---|----------------|--------0-----0-|
>--2-------2-2-2-|2---------------|----------------|----0-----0-2-0-|
>3---------3-3-3-|3---3---------3-|2-------2-0-----|----2-0---------|
>----------------|----------------|----------------|3---------------|
>                |                |                |                |
>----------------|----------------|----------------|----------------|
>------1---------|3-1---1---------|----------------|----------------|
>----0-----------|----0---0-------|------0---------|------0---------|
>--2-------------|----------2-----|----0-----------|----0---0-----0-|
>3---------------|------------3-0-|2---------0-----|--2-------2-----|
>----------------|----------------|--------------3-|3-----------3---|
>
>
>
>--------5-------|----------------|----------------|----------------|
>------2---------|3p2---0---2-----|----------------|----------------|
>----2-----------|----------------|----------------|--2---2-4-2-----|
>2---------------|----2-----------|0-------------0s|4-----------4---|
>0---------------|----------0-3-4-|----------------|--------------0-|
>----------------|----------------|----------------|----------------|
>                |                |                |                |
>------5---------|5-----5---------|------0-2-------|3-2-----0-2-----|
>----5---5-------|5-------5-------|----3-----------|----------------|
>--6-------------|7---------------|----------------|----------------|
>7-----------7---|----------------|0-------------0-|----------------|
>----------------|----------0-3-4-|----------------|----------------|
>----------------|----------------|----------------|----------------|
>
>
>    Was a time...
>----------------|----------------|----------------|----------------|
>------1---1-1-1-|3p1---0---1-----|----------------|----------------|
>----0-----0-0-0-|0-----------0---|----------------|--------0-----0-|
>--2-------2-2-2-|2---------------|----------------|----0-----0-2-0-|
>3---------3-3-3-|3---3---------3-|2-------2-0-----|----2-0---------|
>----------------|----------------|----------------|3---------------|
>                |                |                |                |
>----------------|----------------|----------------|----------------|
>------1---------|3-1---1---------|----------------|----------------|
>----0-----------|----0---0-------|------0---------|------0---------|
>--2-------------|----------2-----|----0-----------|----0---0-----0-|
>3---------------|------------3-0-|2---------0-----|--2-------2-----|
>----------------|----------------|--------------3-|3-----------3---|
>
>
>
>
>--------5-------|----------------|------0-2-------|3-2---0-0-2-----|
>------2---------|3p2---0---2-----|----3-----3-----|------3-3-3---0-|
>----2-----------|----------------|------------2---|--------2-2-2---|
>2---------------|----2-----------|0-------------0-|----------------|
>0---------------|----------0-3-4-|----------------|----------------|
>----------------|----------------|----------------|----------------|
>                |                |                |                |
>------5---------|5-----5---------|----2---2-------|----------------|
>----5---5-------|5-------5-------|------3---3-----|3-----3---3-3-0-|
>--6-------------|7---------------|------------2-0-|----------2-2-0-|
>7-----------7---|----------------|0---------------|----------0-0-0-|
>----------------|----------0-3-4-|----------------|----------------|
>----------------|----------------|----------------|----------------|
>
>CHORUS
>    Said woman, take it slow...
>C9--/---/-/-/-G6|G---/---/-/-/-G6|C---/-/-/-/-/-G6|Em--/---/-/-/-G6|
>                |                |                |                |
>----------------|--------3-------|----------------|------0---------|
>1-------1-------|3-3-0-0---3---0-|----1-----------|----0---0-------|
>0-------0-------|0-----------0---|0---0-----------|----------0---0-|
>2-------2-------|0---------------|2---2-----------|--2---------2---|
>3-------3-------|2---------------|3---3-----------|----------------|
>----------------|3---------------|------------3-2-|0---------------|
>
>
>C---/---/-/-/-G6|G---/---/-/-/-/-| Same as tabbed | guitar---------|
>                |                |                |                |
>------0---------|----------------|2---2---0-2---3-|--2---0---2-----|
>------1---1-1-0-|--------------0-|3---3(3)3-3---3-|3-3-3-3-3-3-3-0-|
>--0---0---0-0-0-|0-----0-------0-|2---2(2)2-2---2-|2-2-2-2-2-2-2-0-|
>2---2-----2-2-0-|0---0-----0---0-|0---0(0)0-0---0-|0-0-0-0-0-0-0-0-|
>3---3-----3-3---|2-----------2---|----------------|----------------|
>----------------|3---------------|----------------|----------------|
>
>C9--/---/-/-/-G6|G---/---/-/-/-G6|C---/-/-/-/-/-G6|Em--/---/-/-/-G6|
>                |                |                |                |
>----------------|--------3-------|----------------|------0---------|
>1-------1-------|3-3-0-0---3---0-|----1-----------|----0---0-------|
>0-------0-------|0-----------0---|0---0-----------|----------0---0-|
>2-------2-------|0---------------|2---2-----------|--2---------2---|
>3-------3-------|2---------------|3---3-----------|----------------|
>----------------|3---------------|------------3-2-|0---------------|
>
>                                  Figure 1            (end Figure 1)
>C---/---/-/-/-G6|G---/---/-/-/-/-|D---------------|--------------//|
>                |                |                |                |
>------0---------|----------------|2---2---0-2---3-|--2---0---2---22|
>------1---1-1-0-|--------------0-|3---3(3)3-3-3-3-|3-3-3-3-3-3-3-33|
>--0---0---0-0-0-|0-----0-------0-|2---2(2)2-2-2-2-|2-2-2-2-2-2-2-22|
>2---2-----2-2-0-|0---0-----0---0-|0---0(0)0-0-0-0-|0-0-0-0-0-0-0-00|
>3---3-----3-3---|2-----------2---|----------------|----------------|
>----------------|3---------------|----------------|----------------|
>
>
>2---------------|----------------|----10----------|----------------|
>3---------------|--------------5s|10--------------|----------------|
>2---------------|--------------6s|11--------------|--------------7s|
>0---------------|--------------7s|12--------------|----------------|
>----------------|----------------|----------------|----------------|
>----------------|----------------|----------------|----------------|
>                |                |                |                |
>2---2---0-2---3-|--2---0---2---22|2---2---0-2---3-|--2---0---2---22|
>3---3(3)3-3-3-3-|3-3-3-3-3-3-3-33|3---3(3)3-3-3-3-|3-3-3-3-3-3-3-33|
>2---2(2)2-2-2-2-|2-2-2-2-2-2-2-22|2---2(2)2-2-2-2-|2-2-2-2-2-2-2-22|
>0---0(0)0-0-0-0-|0-0-0-0-0-0-0-00|0---0(0)0-0-0-0-|0-0-0-0-0-0-0-00|
>----------------|----------------|----------------|----------------|
>----------------|----------------|----------------|----------------|
>
>
>______________________
>| 1.
>----14--------14|----14--14--14\-|
>----------------|--14--14--14----|
>14--------14----|----------------|
>----------------|----------------|
>----------------|----------------|
>----------------|----------------|
>                |                | Go back to play Verse 2.
>2---2---0-2---3-|--2---0---2-----|
>3---3(3)3-3-3-3-|3-3-3-3-3-3-----|
>2---2(2)2-2-2-2-|2-2-2-2-2-2-----|
>0---0(0)0-0-0-0-|0-0-0-0-0-0-----|
>----------------|------------0-2-|
>----------------|----------------|
>
>
>______________________
>| 2.
>----14--------14|------------8p7-|8-------8s108---|------------8p7-|
>----------------|----------------|--------------12|--------8-------|
>14--------14----|----------------|--------------**|----------------|
>----------------|----------------|----------------|----------------|
>----------------|----------------|----------------|----------------|
>----------------|----------------|----------------|----------------|
>                |                |                |                |
>2---2---0-2---3-|--2-----------00|----------------|----------------|
>3---3(3)3-3-3-3-|3-3-3-0-0-3-3-11|----------------|----------------|
>2---2(2)2-2-2-2-|2-2-2-0-0-2-2-00|With chorus backing chords-------|
>0---0(0)0-0-0-0-|0-0-0-0-0-0-0-22|----------------|----------------|
>----------------|--------------33|----------------|----------------|
>----------------|----------------|----------------|----------------|
>
>
>
>8-------8s10--12|------------8p7-|8-------8s108---|--------------12|
>------------12**|----------------|--------------12|--108---8---8-**|
>----------------|----------------|--------------**|----------------|
>----------------|----------------|----------------|----------------|
>----------------|----------------|----------------|----------------|
>----------------|----------------|----------------|----------------|
>                |                |                |                |
>----------------|----------------|----------------|----------------|
>----------------|----------------|----------------|----------------|
>----------------|----------------|----------------|----------------|
>----------------|----------------|----------------|----------------|
>----------------|----------------|----------------|----------------|
>----------------|----------------|----------------|----------------|
>
>                       h
>--1010--------14|--12101210------|----------------|----------------|
>--------------**|----------------|----5-8---------|----------------|
>----------------|----------------|7^------7^r-5---|----4-7---------|
>----------------|----------------|----------------|7^------7^r-5---|
>----------------|----------------|----------------|----------------|
>----------------|----------------|----------------|----------------|
>                |                |                |                |
>----------------|----------------|----------------|----------------|
>----------------|----------------|----------------|----------------|
>With Figure 1---|----------------|With chorus backing chords-------|
>----------------|----------------|----------------|----------------|
>----------------|----------------|----------------|----------------|
>----------------|----------------|----------------|----------------|
>
>----------------|----------------|----------------|----------------|
>----5-8---------|--8-10^8----8-10|10^-r-8-10--8-10^--8-10--8-108-12|
>7^------7^r-5-7s|9-------9-------|----------9-----|------9-------**|
>----------------|----------------|----------------|----------------|
>----------------|----------------|----------------|----------------|
>----------------|----------------|----------------|----------------|
>                |                |                |                |
>----------------|----------------|----------------|----------------|
>----------------|----------------|----------------|----------------|
>----------------|----------------|----------------|----------------|
>----------------|----------------|----------------|----------------|
>----------------|----------------|----------------|----------------|
>----------------|----------------|----------------|----------------|
>
>----------------|----------------|----------------|----------------|
>--1010----------|----------------|5---3-------4p2-|----2---------7^|
>----------------|----------------|**--------------|3h4---0---------|
>----------------|----------------|----------------|----------------|
>----------------|----------------|----------------|----------------|
>----------------|----------------|----------------|----------------|
>                |                |                |                |
>----------------|----------------|----------------|----------------|
>----------------|----------------|----------------|----------------|
>With Figure 1 (3 times)----------|----------------|----------------|
>----------------|----------------|----------------|----------------|
>----------------|----------------|----------------|----------------|
>----------------|----------------|----------------|----------------|
>
>----------------|----------------|----------------|----------------|
>----7-----------|-------***----7^|--7-----5-7---3-|----------3-----|
>----------------|4p2-----5-------|----------------|--2---0---2-----|
>----------------|----3h4-0-------|----------------|------0---0-----|
>----------------|----------------|----------------|----------------|
>----------------|----------------|----------------|----------------|
>                |                |                |                |
>----------------|----------------|2---2---0-2---3-|3-2---0---------|
>----------------|----------------|3---3(3)3-3-3-3-|3-3---3---3-----|
>----------------|----------------|2---2(2)2-2-2-2-|2-2---2---2-----|
>----------------|----------------|0---0(0)0-0-0-0-|0-0---0---0-----|
>----------------|----------------|----------------|----------------|
>----------------|----------------|----------------|----------------|
>
>
>For the last part of the song use the following figures:
>
>2---2---2---2-2-|-------3-33-3333|
>3---3---3---3-30|3-333-33-33-3333|
>2---2---2---2-20|0-000-00-00-0000|                 Figure 2
>0---0---0---0-00|0-000-00-00-0000|
>0--------------0|2---2-22-22-2222|
>----2-0-2---2-20|3---3-33-33-3333|
>
>F6//////////////|G-///-///////-/-|D---------------|Figure 3
>
>
>Play figure 2 10 times, then on the second "I need you" play figure 3.
>The song ends as follows:
>
>
>3p2-------------|2---------------|
>----3-----------|3---------------|
>------2---------|2---------------|
>--------5p4-0---|0---------------|
>----------------|----------------|
>----------------|----------------|
>


--


                   PATIENCE - GUNS 'N' ROSES
                   Tabbed by Vassilis Tzerpos

Key:

p = pull-off            ^ = bend
h = hammer-on           r = release bend
s = slide               / = repeat previous chord
* = slide to the above or below indicated note from as many frets below 
as the number of stars

Av = 577655    G6 = xx0000    C9 = x32030    F6 = 1x3231

Quarter=120=----
  
C---------------|----------------|G---------------|----------------|
                |                |                |                |
------0---0-----|----------------|----------------|----------------|
------1---1-1-1-|3p1-1-0h1-1-1p0-|------0---------|1p0-------------|
----0-------0-0-|0---0-0---0-0---|----0-----0-----|----0-2p0---0h2-|
2-2---------2-2-|2---2-2---2-2---|--0---------0---|----------0-0h2-|
3-----------3-3-|3---3-3---3-3---|2-------------2-|----------------|
----------------|----------------|----------------|----------------|



Av--------------|----------------|D---------------|----------------|
                |                |                |                |
----------------|----------------|2---2---2-2-----|3p2-2-0---2-----|
----2---------0-|3p2---0h2-2-----|3-3---3-----3-3-|3---3-3---3-----|
------2---2-----|----2-0h2-2-2-0-|2-------------2-|2---2-2---2-----|
--------2---2---|----2-------2-0-|0-------------0-|0---0-0---0-----|
0---------------|----------------|----------------|------------0-2-|
----------------|----------------|----------------|----------------|
                |                |                |                |
----------------|----------------|----------------|----------------|
----------------|----------------|----------------|----------------|
----------------|----------------|----------------|------------7---|
----------------|----------------|----------------|----------------|
----------------|----------------|----------------|----------------|
----------------|----------------|----------------|----------------|



C---------------|----------------|G---------------|----------------|
                |                |                |                |
------0---0-----|----------------|----------------|----------------|
------1---1-1-1-|3p1-1-0h1-1-1p0-|------0---------|1p0-------------|
----0-------0-0-|0---0-0---0-0---|----0-----0-----|----0-2p0---0h2-|
2-2---------2-2-|2---2-2---2-2---|--0---------0---|----------0-0h2-|
3-----------3-3-|3---3-3---3-3---|2-------------2-|----------------|
----------------|----------------|----------------|----------------|
                |                |                |                |
----------------|----10----------|--7-8-9-10------|----------------|
8-------------8-|1012--10--8-108-|10^-------10^-8-|------------10--|
----------------|------**--------|----------------|--------------9-|
----------------|----------------|----------------|----------------|
----------------|----------------|----------------|----------------|
----------------|----------------|----------------|----------------|


Av--------------|----------------|D---------------|----------------|
                |                |                |                |
----------------|----------------|2---2---2-2-----|3p2-2-0---2-----|
----2---------0-|3p2---0h2-2-----|3-3---3-----3-3-|3---3-3---3-----|
------2---2-----|----2-0h2-2-2-0-|2-------------2-|2---2-2---2-----|
--------2---2---|----2-------2-0-|0-------------0-|0---0-0---0-----|
0---------------|----------------|----------------|------------0-2-|
----------------|----------------|----------------|----------------|
                |                |                |                |
------------7s8s|9---------------|--10----8-----7-|----7s5---------|
10--------------|----------------|----------------|8---------------|
------------7s8s|9---------------|11----9-----7---|--7--s5---------|
----------------|----------------|----------------|----------------|
----------------|----------------|----------------|----------------|
----------------|----------------|----------------|----------------|



C---/---/-/-/-G6|G-/-/-/-/-/-/-/-|C---/-/-/-/-/-G6|Em--/-/-/-/-/-G6|
                |                |                |                |
------0---------|----------------|----------------|----------------|
----1---3p1-----|----------------|------1---------|----------------|
--0-----------0-|------0---------|----0---0-------|------0---------|
2-----------2---|----0-----0-----|--2-------2-----|----2-----------|
3---------------|--2---------2---|3---------------|--2-------------|
----------------|3-------------3-|---
Добавлено: 06.04.2012
Другие материалы по этой песне:
  • Аккорды и текст

Страница создана 06.04.2012
http://primanota.ru/guns-n-roses/greatest-hits-album-chords.htm
Привет, Гость.
Предлагаем пройти революционный курс по гитаре.
Подарок от PrimaNota.Ru, забирай!