PrimaNota.ru - самый крупный в мире бесплатный архив песенных текстов, аккордов, табулатур и нот


Gunfire 76 - Casualties And Tragedies - таба, бас-таба, видео

Регистрация Запомнить меня
Войти через:  Facebook Google Twitter Vk Yandex Mail.ru

Gunfire 76 - Casualties And Tragedies - таба, бас-таба, видео

Печатать
Просмотров: 125
-------------------------------------------------------------------------------
                             Casualties & Tragedies - Gunfire 76
-------------------------------------------------------------------------------
Tabbed by: Jonny Ford
Email:jonny_ford@hotmail.co.uk
Any questions email me.

Tuning:Standard EADGBe

Intro:

e|--------------------------------------------X6||---------------------------------|
B|----------------------------------------------||---------------------------------|
G|--8-------------------------------------------||--b888--b888--b888--b888--~~~8---|
D|--8-----8-----6--11-11-11-11-11-11-11----6----||---------------------------------|
A|--6-----8-----6--11-11-11-11-11-11-11----6----||---------------------------------|
E|-----0--6--0--4--9--9--9--9--9--9--9--0--4--0-||---------------------------------|

Versre:

e|-----------------------------X7||------------------------------------------------|
B|-------------------------------||------------------------------------------------|
G|--8888--------------6----------||--b888--b888--b888--b888--~~~8------------------|
D|--8888--888--6--7-8---8-6-4----||------------------------------------------------|
A|--6666--888--6--------------6--||------------------------------------------------|
E|--------666--4-----------------||------------------------------------------------|

Chorus:

e|-----------------------------------------------------------------------------------------X2|
B|-------------------------------------------------------------------------------------------|
G|--88888888-----------------------------------------8888888---------------------------------|
D|--88888888---88-10-888-10-888-10-888-10-8---6666-x-8888888--88-10-888-10-888-10-888-10-8---|
A|--66666666---88-10-888-10-888-10-888-10-8---6666-x-6666666--88-10-888-10-888-10-888-10-8---|
E|-------------66-8--666-8--666-8--666-8--6---4444-x----------66-8--666-8--666-8--666-8--6---|

Intro Riff:

e|--------------------------------------------X2|
B|----------------------------------------------|
G|--8-------------------------------------------|
D|--8-----8-----6--11-11-11-11-11-11-11----6----|
A|--6-----8-----6--11-11-11-11-11-11-11----6----|
E|-----0--6--0--4--9--9--9--9--9--9--9--0--4--0-|

Versre:

e|-----------------------------X7||------------------------------------------------|
B|-------------------------------||------------------------------------------------|
G|--8888--------------6----------||--b888--b888--b888--b888--~~~8------------------|
D|--8888--888--6--7-8---8-6-4----||------------------------------------------------|
A|--6666--888--6--------------6--||------------------------------------------------|
E|--------666--4-----------------||------------------------------------------------|

Chorus:

e|-----------------------------------------------------------------------------------------X2|
B|-------------------------------------------------------------------------------------------|
G|--88888888-----------------------------------------8888888---------------------------------|
D|--88888888---88-10-888-10-888-10-888-10-8---6666-x-8888888--88-10-888-10-888-10-888-10-8---|
A|--66666666---88-10-888-10-888-10-888-10-8---6666-x-6666666--88-10-888-10-888-10-888-10-8---|
E|-------------66-8--666-8--666-8--666-8--6---4444-x----------66-8--666-8--666-8--666-8--6---|

Intro Riff:

e|--------------------------------------------X2|
B|----------------------------------------------|
G|--8-------------------------------------------|
D|--8-----8-----6--11-11-11-11-11-11-11----6----|
A|--6-----8-----6--11-11-11-11-11-11-11----6----|
E|-----0--6--0--4--9--9--9--9--9--9--9--0--4--0-|

Solo : Couldn't work out the solo, but the rhythm guitar jusy keeps playing the intro 
riff behind it.

e|--------------------------------------------X7||---------------------------------|
B|----------------------------------------------||---------------------------------|
G|--8-------------------------------------------||--b888--b888--b888--b888--~~~8---|
D|--8-----8-----6--11-11-11-11-11-11-11----6----||---------------------------------|
A|--6-----8-----6--11-11-11-11-11-11-11----6----||---------------------------------|
E|-----0--6--0--4--9--9--9--9--9--9--9--0--4--0-||---------------------------------|

Chorus:

e|-----------------------------------------------------------------------------------------X2|
B|-------------------------------------------------------------------------------------------|
G|--88888888-----------------------------------------8888888---------------------------------|
D|--88888888---88-10-888-10-888-10-888-10-8---6666-x-8888888--88-10-888-10-888-10-888-10-8---|
A|--66666666---88-10-888-10-888-10-888-10-8---6666-x-6666666--88-10-888-10-888-10-888-10-8---|
E|-------------66-8--666-8--666-8--666-8--6---4444-x----------66-8--666-8--666-8--666-8--6---|

Intro Riff/ Outro:

e|--------------------------------------------X7||-----------||
B|----------------------------------------------||-----------||
G|--8-------------------------------------------||-8/--------||
D|--8-----8-----6--11-11-11-11-11-11-11----6----||-8/--------||
A|--6-----8-----6--11-11-11-11-11-11-11----6----||-6/--------||
E|-----0--6--0--4--9--9--9--9--9--9--9--0--4--0-||-----------||



************************************

| /   slide up
| \   slide down
| h   hammer-on
| p   pull-off
| ~   vibrato
| +   harmonic
| x   Mute note
| b   Bend
| pb  Pre-bend
| br  Bend release
| pbr Pre-bend release
| brb Bend release bend

************************************
Добавлено: 22.02.2012
Другие материалы по этой песне:
  • Аккорды и текст

Страница создана 22.02.2012
http://primanota.ru/gunfire-76/casualties-and-tragedies-chords.htm
Привет, Гость.
Предлагаем пройти революционный курс по гитаре.
Подарок от PrimaNota.Ru, забирай!