PrimaNota.ru - самый крупный в мире бесплатный архив песенных текстов, аккордов, табулатур и нот


Guitar Wolf - Jet Generation - таба, видео

Регистрация Запомнить меня
Войти через:  Facebook Google Twitter Vk Yandex Mail.ru

Guitar Wolf - Jet Generation - таба, видео

Печатать
Просмотров: 110
-------------------------------------------------------------------------------
                             Jet Generation - Guitar Wolf
-------------------------------------------------------------------------------
Tabbed by: Squishy
Tuning: Standard
This is the first song I tabbed, I tabbed it a few years ago when I was 14, so
it's not the best tab ever but it sounds alright.
No, there's no solo, I couldn't tab it then I probably can't tab it now.

Intro:
e|---------0--|
B|---------0--|
G|--99-9---0--|
D|--99-9---0--| <-- Just hit your strings openly here
A|--77-7---0--|
E|------------|

Bass Intro:
e|---------------------------------------------------------------------------|
B|---------------------------------------------------------------------------|
G|---------------------------------------------------------------------------|
D|---------------------------------------------------------------------------|
A|---------------------------------------------------------------------------|
E|--11/22/33/44/55/66/77/88/99/1010/1111/1212--12-13-13-13-13-13-13-13-13-13-|
Or something like that...

Intro 2:
e|---------------------------|
B|--99-99-------77-77--------|
G|--99-99-------77-77--------|
D|--99-99-99-99-77-77-77-77--|
A|--77-77-99-99-55-55-77-77--|
E|--------77-77-------55-55--|
Play this a couple of times.

Verse:
e|------------------|
B|--9-------7-------|
G|--9---8---7---6---|
D|--9---9---7---7---|
A|--7---9---5---7---|
E|------7-------5---|

Chorus:
e|-------------------------------------------------------|
B|-------------------------------------------------------|
G|---666/88--666/88--666/88--6---------------------------|
D|---777/99--777/99--777/99--7----10-10-10-10--8-101010--|
A|---777/99--777/99--777/99--7---------------------------|
E|---555/77--555/77--555/77--5---------------------------|
Or you can just play the top three notes

Bridge:
e|--------|
B|--7--9--|
G|--7--9--|
D|--7--9--| x2
A|--5--7--|
E|--------|
Try that for the bridge

Outro:
e|-----------------------------------|
B|-----------------------------------|
G|--9-9-9-9---------7-7-7-7----------|
D|--9-9-9-9-9-9-9-9-7-7-7-7-7-7-7-7--|x2
A|--7-7-7-7-9-9-9-9-5-5-5-5-7-7-7-7--|
E|----------7-7-7-7---------5-5-5-5--|

I promise I've missed something, but it sounds alright to me.


Intro
Bass Intro
Intro 2
Verse
Chorus
Intro 2
Verse
Chorus
Bridge
Solo (not tabbed here)
Intro 2
Verse
Chorus
Intro 2
Verse
Outro
Добавлено: 04.07.2012
Другие материалы по этой песне:
  • Аккорды и текст

Страница создана 04.07.2012
http://primanota.ru/guitar-wolf/jet-generation-chords.htm
Привет, Гость.
Предлагаем пройти революционный курс по гитаре.
Подарок от PrimaNota.Ru, забирай!