PrimaNota.ru - самый крупный в мире бесплатный архив песенных текстов, аккордов, табулатур и нот


Guitar Wolf - Black Rock N Roll - таба, видео

Регистрация Запомнить меня
Войти через:  Facebook Google Twitter Vk Yandex Mail.ru

Guitar Wolf - Black Rock N Roll - таба, видео

Печатать
Просмотров: 169
Guitar Wolf
Black Rock'N'Roll
From the album Loverock


Standard Tuning

This song uses a shuffle instead of a regular chord, so I figured it would be better 
to do a whole tab,
a lot of the time a tab makes regular bar chords needlessly confusing, so most of the 
just play the chord
name mentioned above the tab.


Starts with sound of motorcycle starting, then goes to:

e|------------------------------------------------------------------|
B|------------------------------------------------------------------|
G|------------------------------------------------------------------|
D|------------------------------------------------------------------|
A|-2-2-2-2-2-2-2-2-2-2-2-2-2-2-2-2-2-2-2-2-2-2-2-2-2-2-2-2-2-2-2-2--|
E|-0-0-3-3-0-0-3-3-0-0-3-3-0-0-3-3-0-0-3-3-0-0-3-3-0-0-3-3-0-0-3-3--|


1, 2, 3, 4!!!


   (E)                       (A)
e|------------------------------------------------------|
B|---------------------------2-2-2----------------------|
G|---------------------------2-2-2----------------------|   Alone x4
D|---------------------------2-2-2----------------------|
A|-2-2-2-2-2-2-2-2-2-2-2-2-2----------------------------|
E|-0-0-3-3-0-0-3-3-0-0-3-3-0----------------------------|


   (E)                       (A)
e|------------------------------------------------------|
B|---------------------------2-2-2----------------------|
G|---------------------------2-2-2----------------------|   With verse x4
D|---------------------------2-2-2----------------------|
A|-2-2-2-2-2-2-2-2-2-2-2-2-2----------------------------|
E|-0-0-3-3-0-0-3-3-0-0-3-3-0----------------------------|


then..

  (C)             (D)           (Bb)
e|--------------------------------------------------------|
B|-5---------------7------------4-------------------------|
G|-5---------------7------------4-------------------------|
D|-5---------------7------------4-------------------------|
A|-3---------------5------------2-------------------------|
E|--------------------------------------------------------|

Black Rock'N'Roll!!

   (E)                       (A)
e|------------------------------------------------------|
B|---------------------------2-2-2----------------------|
G|---------------------------2-2-2----------------------|   Alone x2
D|---------------------------2-2-2----------------------|
A|-2-2-2-2-2-2-2-2-2-2-2-2-2----------------------------|
E|-0-0-3-3-0-0-3-3-0-0-3-3-0----------------------------|


   (E)                       (A)
e|------------------------------------------------------|
B|---------------------------2-2-2----------------------|
G|---------------------------2-2-2----------------------|   With verse x4
D|---------------------------2-2-2----------------------|
A|-2-2-2-2-2-2-2-2-2-2-2-2-2----------------------------|
E|-0-0-3-3-0-0-3-3-0-0-3-3-0----------------------------|


then..

  (C)             (D)           (Bb)
e|--------------------------------------------------------|
B|-5---------------7------------4-------------------------|
G|-5---------------7------------4-------------------------|
D|-5---------------7------------4-------------------------|
A|-3---------------5------------2-------------------------|
E|--------------------------------------------------------|

Black Rock'N'Roll!!


   (E)                       (A)
e|------------------------------------------------------|
B|---------------------------2-2-2----------------------|
G|---------------------------2-2-2----------------------|   Alone x2
D|---------------------------2-2-2----------------------|
A|-2-2-2-2-2-2-2-2-2-2-2-2-2----------------------------|
E|-0-0-3-3-0-0-3-3-0-0-3-3-0----------------------------|


   (E)     (D)(B)          (D)         (A)
e|-------------7--7--7--7---------------5--5--5--5--------------------|
B|-9--9--9--7--7--7--7--7---7--7--7--7--5--5--5--5--------------------|
G|-9--9--9--7--8--8--8--8---7--7--7--7--6--6--6--6--------------------|  x2
D|-9--9--9--7--9--9--9--9---7--7--7--7--7--7--7--7--------------------|
A|-7--7--7--5--9--9--9--9---5--5--5--5--7--7--7--7--------------------|
E|-------------7--7--7--7---------------5--5--5--5--------------------|

Solo
e|-0--0--0--12---12-----------------------------12----------------------------12----------------|
B|-0-----0----------15b--------12------------------15b----12b-12b-------------12----------------|
G|-1-----1--------------14b-14----14-12-14b------------14b-------14b-12b-14b--------------------|
D|-2-----2----------------------------------14b-------------------------------------------------|
A|-2-----2--------------------------------------------------------------------------------------|
E|-0-----0---------------------------------------------------------------------------12///0-----|


   (E)                       (A)
e|------------------------------------------------------|
B|---------------------------2-2-2----------------------|
G|---------------------------2-2-2----------------------|   Alone x4
D|---------------------------2-2-2----------------------|
A|-2-2-2-2-2-2-2-2-2-2-2-2-2----------------------------|
E|-0-0-3-3-0-0-3-3-0-0-3-3-0----------------------------|

   (E)                       (A)
e|------------------------------------------------------|
B|---------------------------2-2-2----------------------|
G|---------------------------2-2-2----------------------|   With verse x4
D|---------------------------2-2-2----------------------|
A|-2-2-2-2-2-2-2-2-2-2-2-2-2----------------------------|
E|-0-0-3-3-0-0-3-3-0-0-3-3-0----------------------------|


then..

  (C)             (D)           (Bb)
e|--------------------------------------------------------|
B|-5---------------7------------4-------------------------|
G|-5---------------7------------4-------------------------|
D|-5---------------7------------4-------------------------|
A|-3---------------5------------2-------------------------|
E|--------------------------------------------------------|


Black Rock'N'Roll


e|------------------------------------------------------------------|
B|------------------------------------------------------------------|
G|------------------------------------------------------------------|
D|------------------------------------------------------------------|
A|-2-2-2-2-2-2-2-2-2-2-2-2-2-2-2-2-2-2-2-2-2-2-2-2-2-2-2-2-2-2-2-2--|
E|-0-0-3-3-0-0-3-3-0-0-3-3-0-0-3-3-0-0-3-3-0-0-3-3-0-0-3-3-0-0-3-3--|


  (C)             (D)           (Bb)
e|--------------------------------------------------------|
B|-5---------------7------------4-------------------------|
G|-5---------------7------------4-------------------------|
D|-5---------------7------------4-------------------------|
A|-3---------------5------------2-------------------------|
E|--------------------------------------------------------|

Black Rock'N'Roll

e|------------------------------------------------------------------|
B|------------------------------------------------------------------|
G|------------------------------------------------------------------|  (x8)
D|------------------------------------------------------------------|
A|-2-2-2-2-2-2-2-2-2-2-2-2-2-2-2-2-2-2-2-2-2-2-2-2-2-2-2-2-2-2-2-2--|
E|-0-0-3-3-0-0-3-3-0-0-3-3-0-0-3-3-0-0-3-3-0-0-3-3-0-0-3-3-0-0-3-3--|


End on E
Добавлено: 14.05.2012
Другие материалы по этой песне:
  • Аккорды и текст

Страница создана 14.05.2012
http://primanota.ru/guitar-wolf/black-rock-n-roll-chords.htm
Привет, Гость.
Предлагаем пройти революционный курс по гитаре.
Подарок от PrimaNota.Ru, забирай!