PrimaNota.ru - самый крупный в мире бесплатный архив песенных текстов, аккордов, табулатур и нот


Guitar Vader - Baby-t - таба, видео

Регистрация Запомнить меня
Войти через:  Facebook Google Twitter Vk Yandex Mail.ru

Guitar Vader - Baby-t - таба, видео

Печатать
Просмотров: 67
Artist: Guitar Vader
Song: Baby-T
Album: From Dusk
Also: Jet Set Radio Future soundtrack
Transcribed by: qpliu@yahoo.com

Chorus:

         e|-12--------------|
         B|-----12------12--|
 Lead:   G|---------13------| (4x)
         D|-----------------|
         A|-----------------|
         E|-----------------|


         e|-----------------|
         B|-----------------|
 Rhythm: G|-9-9-9-9-9-9-9-9-| (4x)
         D|-9-9-9-9-9-9-9-9-|
         A|-7-7-7-7-7-7-7-7-|
         E|-----------------|


Verse:

         e|-------|-------|-------|-----------------|-----------------|
         B|-------|-------|-------|-----------------|-----------------|
 Lead:   G|-------|-------|-------|-----------------|-----------------|
         D|-5--7--|-5--7--|-5--7--|-10------10--10--|-10--10--10--10--|
         A|-5--7--|-5--7--|-5--7--|-10------10--10--|-10--10--10--10--|
         E|-3--5--|-3--5--|-3--5--|-8---8-8-8-8-8-8-|-8-8-8-8-8-8-8-8-|
                                        PM-  PM   PM   PM   PM PM   PM

         e|-------|-------|-------|-----------------|-----------------|
         B|-------|-------|-------|-----------------|-----------------|
 Rhythm: G|-12----|-12----|-12----|-----------------|-----------------|
         D|-12-12-|-12-12-|-12-12-|-10--------------|-----------------|
         A|-10-12-|-10-12-|-10-12-|-10--------------|-----------------|
         E|----10-|----10-|----10-|-8---------------|-----------------|


Chorus

Verse


Bridge, Part I: (2x)

         e|--------------------|--------------------|
         B|-------------11-10--|-------------16-15--|
 Lead:   G|-------------10-10--|-------------15-15--|
         D|--------------------|--------------------|
         A|--------------------|--------------------|
         E|--------------------|--------------------|

         e|--------------------|--------------------|
         B|--------------------|--------------------|
 Rhythm: G|--------------------|--------------------|
         D|-10---10-10--10-10--|-12---12-12--12-12--|
         A|-12---12-12--12-12--|-13---13-13--13-13--|
         E|--------------------|--------------------|


         e|--------------------|--------------------|
         B|-------------13-12--|-------------13-12--|
 Lead:   G|-------------12-12--|-------------12-12--|
         D|--------------------|--------------------|
         A|--------------------|--------------------|
         E|--------------------|--------------------|

         e|--------------------|--------------------|
         B|--------------------|--------------------|
 Rhythm: G|--------------------|--------------------|
         D|-9-----9-----7-9----|-9-----9-----7-9----|
         A|-10----10----8-10---|-10----10----8-10---|
         E|--------------------|--------------------|


Bridge, Part II: (2x)

         e|--------------------|--------------------|
         B|-10-10-10-10-11-10--|-15-15-15-15-16-15--|
 Lead:   G|-10-10-10-10-10-10--|-15-15-15-15-15-15--|
         D|--------------------|--------------------|
         A|--------------------|--------------------|
         E|--------------------|--------------------|

         e|--------------------|--------------------|
         B|--------------------|--------------------|
 Rhythm: G|--------------------|--------------------|
         D|-10---10-10--10-10--|-12---12-12--12-12--|
         A|-12---12-12--12-12--|-13---13-13--13-13--|
         E|--------------------|--------------------|


         e|--------------------|--------------------|
         B|-12-12-12-12-13-12--|-12-12-12-12-13-12--|
 Lead:   G|-12-12-12-12-12-12--|-12-12-12-12-12-12--|
         D|--------------------|--------------------|
         A|--------------------|--------------------|
         E|--------------------|--------------------|

         e|--------------------|--------------------|
         B|--------------------|--------------------|
 Rhythm: G|--------------------|--------------------|
         D|-9-----9-----7-9----|-9-----9-----7-9----|
         A|-10----10----8-10---|-10----10----8-10---|
         E|--------------------|--------------------|


Chorus (2x)

Coda:

         e|-------|-------|-------|-------|
         B|-------|-------|-------|-------|
 Lead:   G|-------|-------|-------|-------|
         D|-5--7--|-5--7--|-5--7--|-5--7--|
         A|-5--7--|-5--7--|-5--7--|-5--7--|
         E|-3--5--|-3--5--|-3--5--|-3--5--|

         e|-------|-------|-------|-------|
         B|-------|-------|-------|-------|
 Rhythm: G|-12----|-12----|-12----|-12----|
         D|-12-12-|-12-12-|-12-12-|-12-12-|
         A|-10-12-|-10-12-|-10-12-|-10-12-|
         E|----10-|----10-|----10-|----10-|


         e|---------|---------|---------|--------|
         B|---------|---------|-------3-|--------|
 Lead:   G|---------|---------|-2-4-5---|--------|
         D|---------|---2-4-5-|---------|--------|
         A|-----2-3-|-5-------|---------|-3------|
         E|-3-5-----|---------|---------|--------|

         e|---------|---------|---------|--------|
         B|---------|---------|---------|--------|
 Rhythm: G|-12------|-12------|-12------|--------|
         D|-12--12--|-12--12--|-12--12--|-10-----|
         A|-10--12--|-10--12--|-10--12--|-10-----|
         E|-----10--|-----10--|-----10--|-8------|
     
Добавлено: 08.12.2013
Другие материалы по этой песне:
  • Аккорды и текст

Страница создана 08.12.2013
http://primanota.ru/guitar-vader/baby-t-chords.htm
Привет, Гость.
Предлагаем пройти революционный курс по гитаре.
Подарок от PrimaNota.Ru, забирай!