PrimaNota.ru - самый крупный в мире бесплатный архив песенных текстов, аккордов, табулатур и нот


Guillotine - Until It Subsides - таба, видео

Регистрация Запомнить меня
Войти через:  Facebook Google Twitter Vk Yandex Mail.ru

Guillotine - Until It Subsides - таба, видео

Печатать
Просмотров: 90
www.guillotinemetal.webs.com
This is my first tab so i hope this is good enough.

Pt1
|------------------------------------------------------|
|---4-----4------------------8-----6-----4-----4-------|
|--5-5---5-5----6-----6-----9-9---7-7---5-5---5-5------|
|-5---5-5---5--7-7---7-7---9---9-7---7-5---5-5---5-----|
|3-----3------7---7-7---7-7-----5-----3-----3----------|
|------------5-----5-----------------------------------|

Pt1b
|------------------------------------------------------|
|------------------------------9-7---------------------|
|--------7h9----------------7h9----7/10~~~12~~~~~~\\---|
|----/9~~---9-7~~~------/9~~---------------------------|
|------------------------------------------------------|
|------------------------------------------------------|

|------------------------------------------------------|
|2h3~~-------------------------------------------------|
|-----2h3~~-------7--\4~~~~//--------------------------|
|----------2h3~~~~-------------12121213131314~~~~~\----|
|------------------------------------------------------|
|------------------------------------------------------|

Pt2
|------------------------------------------------------|
|------------------------------------------------------|
|---3-----3-----3-----3-----3-----3-----3-----3--------|
|--4-4---4-4---4-4---4-4---4-4---4-4---4-4---4-4-------|
|-4---4-4---4-4---4-4---4-4---4-4---4-4---4-4---4------|
|2-----2-----2-----2-----2-----2-----2-----2-----------|

Pt2b
|------------------------------------------------------|
|----------------------------12~~~/14~~----------------|
|-------------------12-13-14---------------------------|
|----------12-13-14------------------------------------|
|12-13-14----------------------------------------------|
|------------------------------------------------------|
        .         .

 /Rake            \
|----12----12----16~~~~~~~16~~1513~~~15~~1412~~~~------|
|--13----13----13--------------------------------------|
|14----14----14----------------------------------------|
|------------------------------------------------------|
|------------------------------------------------------|
|------------------------------------------------------|

|14p13p11~~~14p13p11~~~~~~-----------------------------|
|-------------------------14p13p11~~~14p13p11~~~~~~----|
|------------------------------------------------------|
|------------------------------------------------------|
|------------------------------------------------------|
|------------------------------------------------------|

|14p13p1114p13p1114p13p11------------------------------|
|------------------------14p13p1114p13p1114p13p11------|
|------------------------------------------------------|
|------------------------------------------------------|
|------------------------------------------------------|
|------------------------------------------------------|

|------------------------------------------------------|
|------------------------------------------------------|
|15p14p1215p14p1215p14p12------------------------------|
|------------------------15p14p1215p14p1215p14p12------|
|------------------------------------------------------|
|------------------------------------------------------|

|------------------------------------------------------|
|------------------------------------------------------|
|------------------------------------------------------|
|------------------------------------------------------|
|15p14p1215p14p1215p14p12------------------------------|
|------------------------15p14p1215p14p1215p14p12------|

|------------------------------------------------------|
|------------------------------------------------------|
|------------------------------------------------------|
|11br\8~~~~~8br\5~~~~~5br\~~~~~5br\2~~~~~~~~~~---------|
|------------------------------------------------------|
|------------------------------------------------------|

|------------------------------------------------------|
|------------------------------------------------------|
|------------------------------------------------------|
|2h3p2h3p2h3p25p0--------------------------------------|
|----------------3p0-----------------------------------|
|-------------------2p0--------------------------------|


Pt3
|------------------------------------------------------|
|------------------------------------------------------|
|------------------------------------------------------|
|4-4---4-4-------4-4---4-4-----------------------------|
|4-4---4-4-------4-4---4-4-----------------------------|
|2-2---2-2--0----2-2---2-2-0h2p0-----------------------|


Pt4
|------------------------------------------------------|
|------------------------------------------------------|
|------------------------------------------------------|
|4-XX4-X4-4-X----4-XX4-X4-4----------------------------|
|4-XX4-X4-4-X----4-XX4-X4-4----------------------------|
|2-XX2-X2-2-X0---2-XX2-X2-2-0h2p0----------------------|

Pt4b
|------------------------------------------------------|
|------------------------------------------------------|
|4-XX4-X4-4-X----4-XX4-X4-4----------------------------|
|4-XX4-X4-4-X----4-XX4-X4-4----------------------------|
|2-XX2-X2-2-X0---2-XX2-X2-2-0h2p0----------------------|
|------------------------------------------------------|

Pt5
|-----------------------------------0------------------|
|------------------------------------------------------|
|2-XX2-X2-2-X0---2-XX2-X2-2-0h2p0----------------------|
|2-XX2-X2-2-X0---2-XX2-X2-2-0h2p0----------------------|
|------------------------------------------------------|
|------------------------------------------------------|

|------------------------------------------------------|
|------------------------------------------------------|
|------------------------------------------------------|
|------------------------------------------------------|
|4-444-44-4-42---4-444-44-4-42-------------------------|
|2-002-02-2-20---2-002-02-2-20-------------------------|

|------------------------------------------------------|
|------------------------------------------------------|
|------------------------------------------------------|
|------------3~~~~~~~~~~~~~~/6~~~~~~~~~~~~~~~----------|
|------------------------------------------------------|
|------------------------------------------------------|

|------------------------------------------------------|
|------------------------------------------------------|
|------------------------------------------------------|
|------------/9~~------------/12~~~\10tr11tr8tr~~~~\\--|
|4-444-44-4-4----4-444-44-4-4--------------------------|
|2-002-02-2-2----2-002-02-2-2--------------------------|

Pt6
|------------------------------------------------------|
|------------------------------------------------------|
|---------78910b86~-------------12131415b13/17~~~~-----|
|------567----------------101112-----------------------|
|---345---------------8910-----------------------------|
|123---------------678---------------------------------|

|------------------------------------------------------|
|------------------------------------------------------|
|------------------------------------------------------|
|------------------------------------------------------|
|------------------------------------------------------|
|------------------------------------------------------|
Need to figure out the rest of the solo but will be done in no time :D
Добавлено: 03.07.2012
Другие материалы по этой песне:
  • Аккорды и текст

Страница создана 03.07.2012
http://primanota.ru/guillotine/until-it-subsides-chords.htm
Привет, Гость.
Предлагаем пройти революционный курс по гитаре.
Подарок от PrimaNota.Ru, забирай!