PrimaNota.ru - самый крупный в мире бесплатный архив песенных текстов, аккордов, табулатур и нот


Guillemots - Made Up Lovesong 43 - аккорды и текст, таба, видео

Регистрация Запомнить меня
Войти через:  Facebook Google Twitter Vk Yandex Mail.ru

Guillemots - Made Up Lovesong 43 - аккорды и текст, таба, видео

Печатать
Просмотров: 168
Уроки эстрадного вокала в Санкт-Петербурге
Made Up Lovesong 43
Guillemots
http://www.amazon.co.uk/Made-Up-Love-Song-No-43/dp/B000G6H3R6/ref=pd_sbs_m_h__2/202-0476883-0518216?ie=UTF8

http://en.wikipedia.org/wiki/Made_Up_Love_Song#43

I really like this wee pop dittie, from the new LP - Through The Windowpane

*** Capo 1st Fret ***
(everything relative to Capo)

    C
E|---------------------------------------------------------------------|
B|------0-3-0h3------------------3-0-----------3-0-----------3-0-------|
G|----0----2----------0-----------0-0-----------0-0-----------0-0------|
D|---2---------0h2-2h3------2h3-----------2h3-----------2h3------------|
A|--3--3----3--3----------3----3--------3----3--------3----3-----------|
E|---------------------------------------------------------------------|


E|----------------------------------------------------|
B|-----------------------3-0-------------3-0----------|
G|--------2h0-0-----------0-0-------------0-0---------|
D|---2h3p2---2------2h3------2-2h3----2h3----2-2h3----|
A|-3----3---------3----3------------3--3--------------|
E|----------------------------------------------------|


C
I love you through sparks and shining dragons, I do, 
            F
now there's poetry, in an empty coke can. 
C
I love you through sparks and shining dragons, I do, 
            F                            G
now there's majesty, in a burnt out caravan. 

                   F
You got me off the paper round,
                       G
just sprang out of the air, 
                          F
the best things come from nowhere, 
                              C
I love you, I don't think you care. 

                   C*                   C         C7M  
C                (x32030)            (x32010)   (x32000)
I love you through sparks and shining dragons, I do, 
        F    Fsus2(x33010)F        Fsus2
and the symmetry in your northern grin. 
C                  C*                 C         C7M  
I love you through sparks and shining dragons, I do, 
      F      Fsus2      F      Fsus2  G
I can see myself in the refill litter bin. 

    Em             F          Dm                G
You got me off the sofa, just sprang out of the air, 
    Em                    F                            C            
the best things come from nowhere, I can't believe you care.

G      F     C     F     G
             Care...
Добавлено: 11.05.2012
Другие материалы по этой песне:

Страница создана 04.05.2012
http://primanota.ru/guillemots/made-up-lovesong-43-chords.htm
Привет, Гость.
Предлагаем пройти революционный курс по гитаре.
Подарок от PrimaNota.Ru, забирай!