PrimaNota.ru - самый крупный в мире бесплатный архив песенных текстов, аккордов, табулатур и нот


Guided By Voices - Window Of My World - таба, видео

Регистрация Запомнить меня
Войти через:  Facebook Google Twitter Vk Yandex Mail.ru

Guided By Voices - Window Of My World - таба, видео

Печатать
Просмотров: 81
-------------------------------------------------------------------------------
                             SONG NAME - Band Name
-------------------------------------------------------------------------------
Tabbed by: caotain

Tuning: Standard

This is the riff played throughout the song

   (1)         (2)         (3)             (4)               (5)         (6)

E|------------------------------------0-----------------------------------------------0---------|
B|--------------------0------------0-----0-----------------3-----------0-----------1-----1------|
G|-----------0-----0-----0------0-----------------------0-----------0-----------0-----------0---|
D|--------0-----1-----------2---------------2--0-----2-----------0-----------2-----------------0|
A|-----2------------------------------------------3-----------2-----------0---------------------|
E|--3-------------------------------------------------------------------------------------------|

chords:
G    320033
C    x32010
G*   355433
C*   x0555x
D    x0777x
A    x0222x
E    02210x
D5   x07700
Add9 x0760x

(1) (2) (3)
(4) (5) (6)

       (1)          (2)              (3)
In the window of my world, I see the sunlight
          (4)    (5) (6)
I see the moonlight crashing through my world
             (1)          (2)           (3)
Yeah, in the window of my world I pry a mystery
              (4)  (5)       (6)                       
Protecting my misery, in the window of my world
       G    C   G  C
In my world
(1)            (2)                 (3)
Walls block my view and I couldn't move it
     (4)        (5)          (6)   
Got bruises to prove it, and maybe I was hurt
         (1)             (2)      (3)
But I'll make myself to blame, I broke a small lie
(4)            (5)               (6)
Make everything all right in the window of my world
       G    C   G  C
in my world

A D  C* G*     D  Add9 C* G*

 A            D      C*  G*
Give me your number
 D                         Add9      E  G*
Give back my freedom to release you
 A           D       C*  G*
Seek me in slumber
 D                             A        C* 
Take in the words that so complete you
                                     D5        C*
Touch me in the worlds that I might reach you


(1) (2) (3)   (4) (5) (6)  -verse part w/riff-


A D  C* G*     D  Add9 E G*

 A            D      C*  G*
Give me your number
 D                         Aadd9       E  G*
Give back my freedom to release you
 A           D       C*  G*
Seek me in slumber
 D                             A        C* 
Take in the words that so complete you
                                     D5        C*
Touch me in the worlds that I might reach you

       (1)       (2)      (3)
In the window of world, a heart's worth brings meaning
(4)           (5)            (6)
Kicking and screaming in the window of my world, yeah
       (1)          (2)     (3)
In the window of my world, shoulder to shoulder
    (4)     (5)     (6)
I'm feeling bolder crashing through my world
       G     C   G  C   G
In my world
Добавлено: 22.07.2015
Вам также может быть интересно:
Другие материалы по этой песне:
  • Аккорды и текст

Страница создана 22.07.2015
http://primanota.ru/guided-by-voices/window-of-my-world-chords.htm
Привет, Гость.
Предлагаем пройти революционный курс по гитаре.
Подарок от PrimaNota.Ru, забирай!