PrimaNota.ru - самый крупный в мире бесплатный архив песенных текстов, аккордов, табулатур и нот


Guided By Voices - Dorothy's A Planet - аккорды и текст, видео

Регистрация Запомнить меня
Войти через:  Facebook Google Twitter Vk Yandex Mail.ru

Guided By Voices - Dorothy's A Planet - аккорды и текст, видео

Печатать
Просмотров: 92
Dorothy's A Planet
Guided By Voices
 Guided By Voices : Dorothy's A Planet (from Suitcase)


Tab by DouG

 

verse figure:

|-----0--------0-----------0--------0-----------|
|--------7--------7-----------7--------7-----7--|
|-----------6--------6-----------6--------6-----|
|--0--------------------0-----------------------|
|-----------------------------------------------|
|-----------------------------------------------|

|-----0--------0-----------0--------0-----------|
|--------3--------3-----------3--------3-----3--|
|-----------2--------2-----------2--------2-----|
|--0--------------------0-----------------------|
|-----------------------------------------------|
|-----------------------------------------------|


(with verse figure)
true the summer's gone to flake
and all the sugar cane to cake

 

     Bm               A
and deactivate your precious gun
   G
expose your efforts
Em  F#m    Csus2  Dsus2    Esus2
Eve-ry    golden world is baked

 
(back to verse figure)
she's a person fast at play
now she's a planet on display

 

       Bm             A
and revolving like a halo
          G
she says hello world
    Em   F#m  Csus2   Dsus2  Esus2
did you make sense of it today?
              Dsus2
'cause it's okay
               Csus2         Bm   Bsus2
because you're always on my mind
             Csus2         Bm     Bsus2
yeah, you're always on my mind
       Csus2
and I find myself just wasting all my

 
|-----0--------0-----------0--------0-----------|
|--------7--------7-----------7--------7-----7--|
|-----------6--------6-----------6--------6-----|
|--0--------------------0-----------------------|
|-----------------------------------------------|
|-----------------------------------------------|
   time                                with the

 
|-----0--------0-----------0--------0-----------|
|--------8--------8-----------8--------8-----8--|
|-----------7--------7-----------7--------7-----|
|--0--------------------0-----------------------|
|-----------------------------------------------|
|-----------------------------------------------|

   kind


(repeat that figure without lyrics once)
(them strum these for the last two lines)

|-------0-------------------0-----|
|-------7-------------------8-----|
|-------6-------------------7-----|
|-------0-------------------0-----|
|---------------------------------|
|---------------------------------|

you supply my mind with pollution
yeah, supply my mind with pollution

 
(then this last part)
|-----0--------0-----------0-----------0--|
|--------7--------7-----------7--------7--|
|-----------6--------6-----------6-----6--|
|--0--------------------0--------------0--|
|-----------------------------------------|
|-----------------------------------------|


Awesome song, not my tab credit goes to doug! Thanks!
Добавлено: 29.10.2015
Другие материалы по этой песне:
  • Аккорды и текст

Страница создана 21.04.2012
http://primanota.ru/guided-by-voices/dorothys-a-planet-chords.htm
Привет, Гость.
Предлагаем пройти революционный курс по гитаре.
Подарок от PrimaNota.Ru, забирай!