PrimaNota.ru - самый крупный в мире бесплатный архив песенных текстов, аккордов, табулатур и нот


Guided By Voices - Don't stop Now - текст песни, таба, видео

Регистрация Запомнить меня
Войти через:  Facebook Google Twitter Vk Yandex Mail.ru

Guided By Voices - Don't stop Now - текст песни, таба, видео

Печатать
Просмотров: 137
======================================================================================
                          Guided By Voices - Don't Stop Now
Album:       Under the Bushes, Under the Stars
Year:        1996
Songwriter:  Robert Pollard
======================================================================================
In making this tab, I borrowed parts from two pre-existing user-made tabs 
that I had found only on other websites. 
So thanks goes to those tabbers, Chris Nicol and Rémi


Tuning: Standard

Intro:
e|--------------------------|--------------------------|---------------------|
B|--------------------------|--------------------------|---------------------|
G|--------------------------|--------------------------|---------------------|
D|--------------1--1--1--1--|--2--2--2--2--------------|--1-1-1-1--2b--------|
A|--2--2--2--2--------------|--------------2--2--2--2--|---------------------|
E|--------------------------|--------------------------|---------------------|

 C#  E*


Verse:
e|--------------------------|--------------------------|
B|--------------------------|--------------------------|
G|--------4--------4-----4--|--------4--------4-----4--|
D|-----4--------4-----------|-----4--------4-----------|
A|--2--------2--------2-----|--------------------------|
E|--------------------------|--0--------0--------0-----| (x4 then with lyrics)

   Woke   up  one   morning    and    saw a   rooster strutting
   by  my   house
   Six  pack  rings  around  his neck    cock of the block 


e|--------------------------|--------------------------|
B|--------------------------|--------------------------|
G|--------4--------4-----4--|--------4--------4-----4--|
D|-----4--------4-----------|-----4--------4-----------|
A|--2--------2--------2-----|--1--------1--------1-----|
E|--------------------------|--------------------------|   
    Don't    stop   now           don't   stop    now

e|--------------------------|--------------------------|
B|--------------------------|--------------------------|
G|--------9--------9-----9--|-------11-------11----11--|
D|-----9--------9-----------|----11-------11-----------|
A|--7--------7--------7-----|--9--------9--------9-----|
E|--------------------------|--------------------------|

      
B  E  (x4)

 B
What keeps big daddy happy

      E
What makes the buzzard buzz

   B
A leaky quart of motor oil

 E
Head for the hills

 B
Don't stop now

 A#/B          E* F#  C#  E*
Don't stop now


(Guitar one plays these chords:)

B E (x4)

(While guitar two plays:)
e|--------------------------|-------------------------|
B|--------------------------|-------------------------|
G|--------------------------|-------------------------|
D|-------11--14--11---(x3)--|------11--12--11---------|
A|----14--------------------|---14--------------------|
E|--------------------------|-------------------------| (x2)


 B        A#/B      E*
Pulled into economy island


 B     A#/B        E*
King shit and the golden boys

  B           A#/B          E*
Plenty more where we come from, top of the line

 C#   E*       B A#/B E
Don't stop now           (x4)


-------------------------------------------------------------------------------

Chords:
         B          E         A#/B        E*         F#         C#
E|-------2----------0---------------------7----------9----------4-----------|
B|-------4----------0----------4----------9---------10----------6-----------|
G|-------4----------1----------4----------9---------10----------6-----------|
D|-------4----------2----------4----------9---------10----------6-----------|
A|-------2----------2----------1----------7----------9----------4-----------|
E|------------------0-------------------------------------------------------|
Добавлено: 09.01.2014
Другие материалы по этой песне:
  • Аккорды и текст

Страница создана 23.06.2012
http://primanota.ru/guided-by-voices/dont-stop-now-chords.htm
Привет, Гость.
Предлагаем пройти революционный курс по гитаре.
Подарок от PrimaNota.Ru, забирай!