PrimaNota.ru - самый крупный в мире бесплатный архив песенных текстов, аккордов, табулатур и нот


Gufi - Punk Superstars - таба, бас-таба, видео

Регистрация Запомнить меня
Войти через:  Facebook Google Twitter Vk Yandex Mail.ru

Gufi - Punk Superstars - таба, бас-таба, видео

Печатать
Просмотров: 145
Banda   : Gufi
Cancion : Punk Superstars
Autor   : Tim Picchetti (supongo yo xd)
Tono    : Standard
Gtr1    : Picchetti 
Gtr2    : El mismo 
            
            
*Dato:   *P/M: Palm Mute
         *Para el weon/a que no sepa  e: 1ra Cuerda
                                      B: 2da Cuerda
                                      G: 3ra Cuerda
                                      D: 4ta Cuerda
                                      A: 5ta Cuerda
                                      E: 6ta Cuerda
         *El medio  tema conchemimare!!

Intro:
Gtr1:
e|-----------------------------------------------------------|
B|-----------------------------------------------------------|
G|--------------------------------9-9-9~~~--9-x-9-x-9--------|
D|--------7-7-7~~~----9-9-9~~~----9-9-9~~~--9-x-9-x-9--------|x2
A|--------7-7-7~~~----9-9-9~~~----7-7-7~~~--7-x-7-x-7--------|
E|--------5-5-5~~~----7-7-7~~~-------------------------------|

Gtr2:
Palm Mute________________________________________|
e|-------------------------------------------------------------------------|
B|--------5---5---5---5---5---5---5---5---5---5---5---5---5---5---5---5----|
G|----------4---4---4---4---4---4---4---4---4---4---4---4---4---4---4---4--|
D|-------------------------------------------------------------------------|x1
A|-------------------------------------------------------------------------|
E|-------------------------------------------------------------------------|


Verso:   Vas a quererme cuando no esté...
Palm Mute__________________________________________________________________________|
e|--------------------------------------------------------------------------------------|
B|--------------------------------------------------------------------------------------|
G|----------------------------------------------9-9-9-9-9-9-9-9----6-6-6-6-6-6-6-6------|
D|----------7-7-7-7-7-7-7-7--9-9-9-9-9-9-9-9----9-9-9-9-9-9-9-9----6-6-6-6-6-6-6-6------|x2
A|----------7-7-7-7-7-7-7-7--9-9-9-9-9-9-9-9----7-7-7-7-7-7-7-7----4-4-4-4-4-4-4-4------|
E|----------5-5-5-5-5-5-5-5--7-7-7-7-7-7-7-7--------------------------------------------|


Pre-coro: ...Una canción que suene bien...seré un Panky que haga rolas en inglés...
e|--------------------------------------------------------------------------------------|
B|--------------------------------------------------------------------------------------|
G|----------------------------------------------9-9-9-9-9-9-9-9----6-6-6-6-6-6-6-6------|
D|----------7-7-7-7-7-7-7-7--9-9-9-9-9-9-9-9----9-9-9-9-9-9-9-9----6-6-6-6-6-6-6-6------|
A|----------7-7-7-7-7-7-7-7--9-9-9-9-9-9-9-9----7-7-7-7-7-7-7-7----4-4-4-4-4-4-4-4------|
E|----------5-5-5-5-5-5-5-5--7-7-7-7-7-7-7-7--------------------------------------------|
   ...Seré tu Punk.....Tu superpunk...
e|-----------------------------------------|
B|-----------------------------------------|
G|-----------------------------------------|
D|---7-7-7-7-7-7-7-7---9-9--9-----9-9--9---|
A|---7-7-7-7-7-7-7-7---9-9--9-----9-9--9---|
E|---5-5-5-5-5-5-5-5---7-7--7-----7-7--7---|
             Palm Mute____|   PM_____|


Coro: ...We are the stars...
e|-------------------------------------------------|
B|-------------------------------------------------|
G|--------------------------9-9-9-9--6-6-6-6-------|
D|--------7-7-7-7--9-9-9-9--9-9-9-9--6-6-6-6-------|x3
A|--------7-7-7-7--9-9-9-9--7-7-7-7--4-4-4-4-------|
E|--------5-5-5-5--7-7-7-7-------------------------|
      ...We are the punks (We are the punks)...   
e|----------------------------------------------------------------------------------|
B|----------------------------------------------------------------------------------|
G|-----------------------------------------------9-9-9-9-9-9-9-9-9-9-9-9-9-9-9-9----|
D|----------7-7-7-7-7-7-7-7--9-9-9-9-9-9-9-9-----9-9-9-9-9-9-9-9-9-9-9-9-9-9-9-9----|
A|----------7-7-7-7-7-7-7-7--9-9-9-9-9-9-9-9-----7-7-7-7-7-7-7-7-7-7-7-7-7-7-7-7----|
E|----------5-5-5-5-5-5-5-5--7-7-7-7-7-7-7-7----------------------------------------|

e|---------------------------------------------|
B|---------------------------------------------|
G|-------------------------------6-6-6-6--4-4--|
D|----------7-7--7-----7-7--7----6-6-6-6--4-4--|
A|----------7-7--7-----7-7--7----4-4-4-4--2-2--|
E|----------5-5--5-----5-5--5------------------|
        P/M:___|   P/M____|

e|--------------------------------------------------------------------------|
B|--------------------------------------------------------------------------|
G|--9-9-9-9-9-9-9-9-9-9-9-9-9-9-9-9---------------------------6-6-6-6--4-4--|
D|--9-9-9-9-9-9-9-9-9-9-9-9-9-9-9-9------7-7--7-----7-7--7----6-6-6-6--4-4--|
A|--7-7-7-7-7-7-7-7-7-7-7-7-7-7-7-7------7-7--7-----7-7--7----4-4-4-4--2-2--|
E|---------------------------------------5-5--5-----5-5--5------------------|
                                     P/M:___|   P/M:___|

Verso:      Estamos hechos para este rol...
Palm Mute__________________________________________________________________________|
e|--------------------------------------------------------------------------------------|
B|--------------------------------------------------------------------------------------|
G|----------------------------------------------9-9-9-9-9-9-9-9----6-6-6-6-6-6-6-6------|
D|----------7-7-7-7-7-7-7-7--9-9-9-9-9-9-9-9----9-9-9-9-9-9-9-9----6-6-6-6-6-6-6-6------|x2
A|----------7-7-7-7-7-7-7-7--9-9-9-9-9-9-9-9----7-7-7-7-7-7-7-7----4-4-4-4-4-4-4-4------|
E|----------5-5-5-5-5-5-5-5--7-7-7-7-7-7-7-7--------------------------------------------|

Pre-coro: ...Una canción que suene bien...un  par de tetas que rellenen nuestro hotel
e|--------------------------------------------------------------------------------------|
B|--------------------------------------------------------------------------------------|
G|----------------------------------------------9-9-9-9-9-9-9-9----6-6-6-6-6-6-6-6------|
D|----------7-7-7-7-7-7-7-7--9-9-9-9-9-9-9-9----9-9-9-9-9-9-9-9----6-6-6-6-6-6-6-6------|
A|----------7-7-7-7-7-7-7-7--9-9-9-9-9-9-9-9----7-7-7-7-7-7-7-7----4-4-4-4-4-4-4-4------|
E|----------5-5-5-5-5-5-5-5--7-7-7-7-7-7-7-7--------------------------------------------|
   ...Seré tu Punk.....Tu superpunk...
e|-----------------------------------------|
B|-----------------------------------------|
G|-----------------------------------------|
D|---7-7-7-7-7-7-7-7---9-9--9-----9-9--9---|
A|---7-7-7-7-7-7-7-7---9-9--9-----9-9--9---|
E|---5-5-5-5-5-5-5-5---7-7--7-----7-7--7---|
             Palm Mute____|   PM_____|

Coro: ...We are the stars...
e|-------------------------------------------------|
B|-------------------------------------------------|
G|--------------------------9-9-9-9--6-6-6-6-------|
D|--------7-7-7-7--9-9-9-9--9-9-9-9--6-6-6-6-------|x3
A|--------7-7-7-7--9-9-9-9--7-7-7-7--4-4-4-4-------|
E|--------5-5-5-5--7-7-7-7-------------------------|
      ...We are the punks (We are the punks)...   
e|----------------------------------------------------------------------------------|
B|----------------------------------------------------------------------------------|
G|-----------------------------------------------9-9-9-9-9-9-9-9-9-9-9-9-9-9-9-9----|
D|----------7-7-7-7-7-7-7-7--9-9-9-9-9-9-9-9-----9-9-9-9-9-9-9-9-9-9-9-9-9-9-9-9----|
A|----------7-7-7-7-7-7-7-7--9-9-9-9-9-9-9-9-----7-7-7-7-7-7-7-7-7-7-7-7-7-7-7-7----|
E|----------5-5-5-5-5-5-5-5--7-7-7-7-7-7-7-7----------------------------------------|

e|------------------------------------------------------|
B|------------------------------------------------------|
G|-------------------------------6-6-6-6--4-4----9~~~---|
D|----------7-7--7-----7-7--7----6-6-6-6--4-4----9~~~---|
A|----------7-7--7-----7-7--7----4-4-4-4--2-2----7~~~---|
E|----------5-5--5-----5-5--5---------------------------|
        P/M:___|   P/M____|

Puente: (como  se llame) (?)~~~
e|----------------------------------|
B|-------------------10-10--12-12---|
G|---------9-9-9-9---9--9---11-11---|
D|---------9-9-9-9------------------|x2
A|----------------------------------|
E|----------------------------------|
        ...Consigue  Juana...
e|-------------------------------------------------------|
B|-------------------------------------------------------|
G|-------------------------------------------------------|
D|----------2-2-2-2-2--6-6-6-6-6--7-7-7-7-7--9-9-9-9-9---|x2
A|----------2-2-2-2-2--6-6-6-6-6--7-7-7-7-7--9-9-9-9-9---|
E|----------0-0-0-0-0--4-4-4-4-4--5-5-5-5-5--7-7-7-7-7---|
 Palm muted____________________________________________|
        ...Consigue  Tetas...
e|-------------------------------------------------------|
B|-------------------------------------------------------|
G|-------------------------------------------------------|
D|----------2-2-2-2-2--6-6-6-6-6--7-7-7-7-7--9-9-9-9-9---|x2
A|----------2-2-2-2-2--6-6-6-6-6--7-7-7-7-7--9-9-9-9-9---|
E|----------0-0-0-0-0--4-4-4-4-4--5-5-5-5-5--7-7-7-7-7---|


Coro: ...We are the stars...
e|-------------------------------------------------|
B|-------------------------------------------------|
G|--------------------------9-9-9-9--6-6-6-6-------|
D|--------7-7-7-7--9-9-9-9--9-9-9-9--6-6-6-6-------|x3
A|--------7-7-7-7--9-9-9-9--7-7-7-7--4-4-4-4-------|
E|--------5-5-5-5--7-7-7-7-------------------------|
   ...We Are The Punks...
e|---------------------------------------------|
B|---------------------------------------------|
G|---------------------------------------------|
D|----------7-7-7-7-7-7-7-7--9-9-9-9-9-9-9-9---|
A|----------7-7-7-7-7-7-7-7--9-9-9-9-9-9-9-9---|
E|----------5-5-5-5-5-5-5-5--7-7-7-7-7-7-7-7---|

...We are the stars...
e|-------------------------------------------------|
B|-------------------------------------------------|
G|--------------------------9-9-9-9--6-6-6-6-------|
D|--------7-7-7-7--9-9-9-9--9-9-9-9--6-6-6-6-------|x3
A|--------7-7-7-7--9-9-9-9--7-7-7-7--4-4-4-4-------|
E|--------5-5-5-5--7-7-7-7-------------------------|

           ...We Are The Punks...     ...We Are The Superstaaaaaaaaaaaaaaaaaaaars...
e|----------------------------------------------------------------------------------|
B|----------------------------------------------------------------------------------|
G|-----------------------------------------------9-9-9-9-9-9-9-9-9-9-9-9-9-9-9-9----|
D|----------7-7-7-7-7-7-7-7--9-9-9-9-9-9-9-9-----9-9-9-9-9-9-9-9-9-9-9-9-9-9-9-9----|
A|----------7-7-7-7-7-7-7-7--9-9-9-9-9-9-9-9-----7-7-7-7-7-7-7-7-7-7-7-7-7-7-7-7----|
E|----------5-5-5-5-5-5-5-5--7-7-7-7-7-7-7-7----------------------------------------|

e|------------------------------------------------------------------------|
B|------------------------------------------------------------------------|
G|--------------------------------------------------------6-6-6-6--4-4-4--|
D|----------7-7--7-----7-7--7-----7-7--7---(Silencio)-----6-6-6-6--4-4-4--|
A|----------7-7--7-----7-7--7-----7-7--7------------------4-4-4-4--2-2-2--|
E|----------5-5--5-----5-5--5-----5-5--5----------------------------------|
        P/M:___|   P/M____|   P/M____|
Fin:
e|-----------|
B|-----------|
G|--9~~~-----|
D|--9~~~-----|
A|--7~~~-----|
E|-----------|


Letra:
Vas a quererme
cuando no esté.
Prende la tele,
busca en MTV.

Ella me dijo:
'olvídame'
así que justo eso
es lo que voy hacer.

Una canción
que pegue bien,
seré un punky
que haga rolas en inglés.
Seré tu punk,
tu super punk.

We are the stars,
we are the superstars.
We are the punks,
the punky superstars.
We are the stars,
the super stupid stars.
We are the punks (we are the punks)
we are the superstars.

Estamos hechos
para este rol,
en cada radio,
show de televisión.

¿Qué tan difícil
podría ser
si fuimos de asco
para esta estupidez?

Una canción
que pegue bien,
un par de tetas
que rellenen nuestro hotel.
Seré tu punk,
tu super punk.

We are the stars...

Consigue juana,
un poco para mí,
un poco para ti,
un poco para mí.

Consigue fama,
un poco para ti,
un poco para mí,
un poco para ti.

Consigue tetas,
un poco para mí,
un poco para mí,
un poco para mí.

Consigue caca,
un poco para tí,
un poco para ti,
un poco para ti.

We are the stars, we are the superstars.
We are the punks, the punky superstars.
We are the stars, the super stupid stars.
We are the punks (we are the punks).

We are the stars, we are the superstars.
We are the punks, the punky superstars.
We are the stars, don't want an any stars.
We are the punks (we are the punks)
We Are The Superstars.
Добавлено: 16.03.2012
Другие материалы по этой песне:
  • Аккорды и текст

Страница создана 16.03.2012
http://primanota.ru/gufi/punk-superstars-chords.htm
Привет, Гость.
Предлагаем пройти революционный курс по гитаре.
Подарок от PrimaNota.Ru, забирай!