PrimaNota.ru - самый крупный в мире бесплатный архив песенных текстов, аккордов, табулатур и нот


Gufi - Por Ella - бас-таба, видео

Регистрация Запомнить меня
Войти через:  Facebook Google Twitter Vk Yandex Mail.ru

Gufi - Por Ella - бас-таба, видео

Печатать
Просмотров: 118
++++++++++++++++++
| Gufi- Por Ella |
++++++++++++++++++


"Que alguna vez le dije si te matas también lo voy a hacer yo..."

Tuning: EADG



Verse
"Que alguna vez le dije..."
1.
G|---------------------------------------|
D|---------------------00000000-02222444-|
A|-0~--------0~--------------------------|
E|---------------------------------------|

"Alguna vez oí que todo lo que termina..."
2.
G|-------------------00000000-44444444-66666666-22222222-------------------|
D|-00000000-00000000-------------------------------------44444444----------|
A|----------------------------------------------------------------22222222-|
E|-------------------------------------------------------------------------|

"Y porque sé que nadie entiende..."
3.
G|-------------------------------------------------------------------------|
D|----------00000000-22222222-22222222----------77777777-00000000-02222444-|
A|-22222222----------------------------00000000----------------------------|
E|-------------------------------------------------------------------------|

Pre-Chorus
"Siento que esta vez fuí yo..."
4.
G|--------------------------------------------------------------------|
D|--------------------------------------------------22222222-22222222-|
A|-----------------0~--0-0~---000-22222222-22222222-------------------|
E|-3~---3-3~---333----------------------------------------------------|

Chorus
"Por ti..."
5.
G|----------------------------44444444----------------------------44444444-|
D|-------------------------------------------------------------------------|
A|----------00000000-22222222-------------------00000000-22222222----------|
E|-33333333----------------------------33333333----------------------------|

"Na na na na..."
6.
G|----------------------|
D|----------------------|
A|----------000x----000-|
E|-33333333-------------|

Verse
"Siento que tu madre anda diciendo..."
7.
G|-------------------00000000-44444444-66666666-22222222-------------------|
D|-00000000-00000000-------------------------------------------------------|
A|-------------------------------------------------------22222222-22222222-|
E|-------------------------------------------------------------------------|

"Como quieras que yo siga solo..."
8.
G|-------------------------------------------------------------------------|
D|----------00000000-22222222-22222222-------------------------------------|
A|-22222222----------------------------00000000-00000000-22222222-22222222-|
E|-------------------------------------------------------------------------|

"Que voy a hacer para seguir?"
9.
G|-------------------|
D|-------------------|
A|-00000000-00000000-|
E|-------------------|

Pre-Chorus
"Siento que esta vez fuí yo..."
10.
G|--------------------------------------------------------------------|
D|--------------------------------------------------22222222-22222222-|
A|-----------------0~--0-0~---000-22222222-22222222-------------------|
E|-3~---3-3~---333----------------------------------------------------|

Chorus
"Por ti..."
11.
G|----------------------------44444444----------------------------44444444-|
D|-------------------------------------------------------------------------|
A|----------00000000-22222222-------------------00000000-22222222----------|
E|-33333333----------------------------33333333----------------------------|

"Na na na na..."
12.
G|----------------------|
D|----------------------|
A|----------000x----000-|
E|-33333333-------------|

Bridge
13.
G|-----------------------------------|
D|-0~--------------------------------|
A|-----------------------------------|
E|-----------------------------------|

"Voy a contar hasta cinco..."
14.
G|----------22222222-44444444-66666666-44444444-22222222-00000000-22222222-|
D|-------------------------------------------------------------------------|
A|-22222222----------------------------------------------------------------|--x2
E|-------------------------------------------------------------------------|

Pre-Chorus
15.
G|---------------------------------------------------------------------------|
D|---------------------------------------------------------22222222-22222222-|
A|--------------------000x-0-0-44444444-222x-2-2-2222x-222-------------------|
E|-333x-3-3-3333x-333--------------------------------------------------------|

Chorus
"Por ti..."
16.
G|----------------------------44444444----------------------------44444444-|
D|-------------------------------------------------------------------------|
A|----------00000000-22222222-------------------00000000-22222222----------|
E|-33333333----------------------------33333333----------------------------|

"Na na na na..."
17.
G|-00000000-66666666-44444444-22222222-00000000-66666666-44444444-22222222-|
D|-------------------------------------------------------------------------|
A|-------------------------------------------------------------------------|
E|-------------------------------------------------------------------------|

"Na na na na..."
18.
G|---------------------------------------|
D|---------------------0~----------------|
A|-----------000x--000-------------------|
E|-333x--333-----------------------------|


Lyrics:


Ella tenía vente y decidió darle fin a su vida así
Subió hasta el piso veintiuno y se marchó sin decir adiós
Me pregunto si cuando volaba por el aire recordó
Que alguna vez le dije si te matas también lo voy a hacer yo

Alguna vez oí que todo lo que termina, termina mal
Y lo que no acaba poco a poco se pudre mas y mas
Y porque sé que nadie entiende porque decidiste no seguir
Y es que tanta mierda en la cabeza no te deja ni pensar

Siento que esta vez fuí yo el que estaba en lo correcto
Por ella esta canción
Por ti...

Siento que tu madre anda diciendo que tu lo hiciste por mi
Y si supiera cuanto tu la odiabas no podría ni vivir asi
Como quieres que yo siga solo sabiendo que ya no estas
Como quieres que ahora yo despierte en las mañanas y no esta tu olor
Que voy a hacer para seguir?

Voy a contar hasta cinco y quiero que tu me digas
Que todo esto es mentira, que nada de esto sucedió
Voy a contar hasta cinco para que salgas de ahí
Quiero que toquen la puerta, abrir y que seas tu



+++++++++++++++++++++++++++++++++
| RaiLeff                       |
| Underground__Dora@Hotmail.Com |
+++++++++++++++++++++++++++++++++
Добавлено: 30.07.2012
Другие материалы по этой песне:

Страница создана 26.03.2012
http://primanota.ru/gufi/por-ella-chords.htm
Привет, Гость.
Предлагаем пройти революционный курс по гитаре.
Подарок от PrimaNota.Ru, забирай!