PrimaNota.ru - самый крупный в мире бесплатный архив песенных текстов, аккордов, табулатур и нот


Gufi - Paul - бас-таба, видео

Регистрация Запомнить меня
Войти через:  Facebook Google Twitter Vk Yandex Mail.ru

Gufi - Paul - бас-таба, видео

Печатать
Просмотров: 144
++++++++++++++
| Gufi- Paul |
++++++++++++++


"Que pasa horas en su pieza sin que nadie sepa..."

Tuning: EADG


Intro     
1.
G|---------------------------------|
D|---------------------------------|
A|-2-2-22--------------------------|
E|---------5-5-55--3-3-33--5-55-55-|

Verse
"Suena el despertador en la casa de Paul..."
2.
G|-------------------------------------------------------------------|
D|-------------------------------------------------------------------|
A|-55555555-55555555-22222222-22222222-------------------------------|
E|-------------------------------------33333333-33333333-5-55-55-555-|

"Otra vez ensució denuevo su colchón..."
3.
G|-------------------------------------------------------------------|
D|-------------------------------------------------------------------|
A|-55555555-55555555-22222222-22222222-------------------------------|
E|-------------------------------------33333333-33333333-5-55-55-555-|

Pre-Chorus
"Todos los dias se masturba..."
4.
G|----------------------------------|
D|----------------------------------|
A|-2-2-22---------------------------|
E|---------5-5-55--3-3-33--55555555-|

Chorus
"Y pasa horas en la ducha..."
5.
G|-------------------------------------------------------------------|
D|-------------------------------------------------------------------|
A|-55555555-55555555-22222222-22222222-------------------------------|
E|-------------------------------------33333333-33333333-5-55-55-555-|

"Que pasa todas esas horas..."
6.
G|-------------------------------------------------------------------|
D|-------------------------------------------------------------------|
A|-55555555-55555555-22222222-22222222-------------------------------|
E|-------------------------------------33333333-33333333-5-55-55-555-|

Outro
7.
G|-------------------------------------|
D|-------------------------------------|
A|-22222222----------------------------|
E|----------55555555-33333333-55555555-|

Verse
"Como una enfermedad que desde niño Paul..."
8.
G|-------------------------------------------------------------------|
D|-------------------------------------------------------------------|
A|-55555555-55555555-22222222-22222222-------------------------------|
E|-------------------------------------33333333-33333333-5-55-55-555-|

"Sentado en un rincón..."
9.
G|-------------------------------------------------------------------|
D|-------------------------------------------------------------------|
A|-55555555-55555555-22222222-22222222-------------------------------|
E|-------------------------------------33333333-33333333-5-55-55-555-|

Pre-Chorus
"Miren, Paul se está pajeando..."
10.
G|----------------------------------|
D|----------------------------------|
A|-2-2-22---------------------------|
E|---------5-5-55--3-3-33--55555555-|

Chorus
"Y pasa horas en la ducha..."
11.
G|-------------------------------------------------------------------|
D|-------------------------------------------------------------------|
A|-55555555-55555555-22222222-22222222-------------------------------|
E|-------------------------------------33333333-33333333-5-55-55-555-|

"Que pasa todas esas horas..."
12.
G|-------------------------------------------------------------------|
D|-------------------------------------------------------------------|
A|-55555555-55555555-22222222-22222222-------------------------------|
E|-------------------------------------33333333-33333333-5-55-55-555-|

Outro
13.
G|-------------------------------------|
D|-------------------00000000-22222222-|
A|-22222222-44444444-------------------|--x2
E|-------------------------------------|

Bridge
14.
G|---------------------------------------------------|
D|---------------------------------------------------|
A|-5~--------2~--------------------------------------|
E|---------------------5~--------3~--------5~--------|

15.
G|-------------------------------------------------------------------------|
D|-------------------------------------------------------------------------|
A|-55555555-55555555-22222222-22222222-------------------------------------|
E|-------------------------------------55555555-55555555-33333333-55555555-|

16.
G|-------------------------------------------------------------------|
D|-------------------------------------------------------------------|
A|-55555555-55555555-22222222-22222222-------------------------------|--x2
E|-------------------------------------33333333-33333333-5-55-55-555-|

Chorus
"Y pasa horas en la ducha..."
17.
G|-------------------------------------------------------------------|
D|-------------------------------------------------------------------|
A|-55555555-55555555-22222222-22222222-------------------------------|
E|-------------------------------------33333333-33333333-5-55-55-555-|

"Que pasa todas esas horas..."
18.
G|-------------------------------------------------------------------|
D|-------------------------------------------------------------------|
A|-55555555-55555555-22222222-22222222-------------------------------|
E|-------------------------------------33333333-33333333-5-55-55-555-|

"Y pasa horas en la ducha..."
19.
G|-------------------------------------------------------------------|
D|-------------------------------------------------------------------|
A|-55555555-55555555-22222222-22222222-------------------------------|
E|-------------------------------------33333333-33333333-5-55-55-555-|

"Que pasa todas esas horas..."
20.
G|-------------------------------------------------------------------|
D|-------------------------------------------------------------------|
A|-55555555-55555555-22222222-22222222-------------------------------|
E|-------------------------------------33333333-33333333-5-55-55-555-|

Outro
21.
G|---------------------------------------------------|
D|-------------------55555555-77777777---------------|
A|-22222222-44444444-------------------5--55~--------|
E|---------------------------------------------------|


Lyrics:


Suena el despertador en la casa de Paul
Está despierto, está despierto hace mas de media hora
Otra vez ensució denuevo su colchón
Y no lo limpia, y no lo limpia porque le gusta la chacota

Todos los dias se masturba

Y pasa horas en la ducha, horas en su pieza
Sin que nadie sepa
Que pasa todas esas horas, todas esas duchas
Haciendose la paja

Como una enfermedad que desde niño Paul
Desarrollaba en el colegio en las clases de geografíá
Sentado en un rincón al fondo del salón
Estaba en eso, estaba en eso cuando asustada una alumna grita

Miren, Paul se está pajeando



+++++++++++++++++++++++++++++++++
| RaiLeff                       |
| Underground__Dora@Hotmail.Com |
+++++++++++++++++++++++++++++++++
Добавлено: 27.04.2012
Другие материалы по этой песне:

Страница создана 27.04.2012
http://primanota.ru/gufi/paul-chords.htm
Привет, Гость.
Предлагаем пройти революционный курс по гитаре.
Подарок от PrimaNota.Ru, забирай!