PrimaNota.ru - самый крупный в мире бесплатный архив песенных текстов, аккордов, табулатур и нот


Gufi - La Historia De Juan - бас-таба, видео

Регистрация Запомнить меня
Войти через:  Facebook Google Twitter Vk Yandex Mail.ru

Gufi - La Historia De Juan - бас-таба, видео

Печатать
Просмотров: 141
+++++++++++++++++++++++++++++
| Gufi- La Historia De Juan |
+++++++++++++++++++++++++++++


"Pero prefería pensar que las cosas pasan por algo..."

Tuning: EADG


Intro
1.
G|----------------------------------------|
D|-1-1-1-1-1-1-1-1------------------------|
A|----------------------------------------|
E|----------------1-1x--1-1x--------------|

Verse
"Voi a contar la historia de Juan..."
2.
G|----------------------------------------|
D|----------------------------------------|
A|-------8888888------5555555-------------|
E|-666666-------333333--------------------|

"No creas que es refacil hablar..."
3.
G|----------------------------------------|
D|-------8888888--------------------------|
A|-666666-------6666666-8888888-----------|
E|----------------------------------------|

"Juan tenía que trabajar..."
4.
G|----------------------------------------|
D|----------------------------------------|
A|-------8888888------5555555-------------|
E|-666666-------333333--------------------|

"De noche tenía que soportar..."
5.
G|----------------------------------------|
D|-------8888888--------------------------|
A|-666666-------6666666-8888888-----------|
E|----------------------------------------|

Pre-Chorus
"Estupido pendejo..."
6.
G|----------------------------------------|
D|----------------------------------------|
A|---------66-666-66-88-888---------------|
E|-1/3-1/3--------------------------------|

Chorus
"A dos casas de ti..." 
7.
G|--------------------------------------------|
D|--------------------------------------------|
A|--------8888888-------5555555-6-6---6-6-8-8-|--x2
E|-6666666-------3333333-----------6-6--------|

Outro:
8.
G|----------------------------------------|
D|----------------------------------------|
A|-66-666-66-88-888-----------------------|
E|----------------------------------------|

Verse
"Y si dependiera de mi..."
9.
G|----------------------------------------|
D|----------------------------------------|
A|-------8888888------5555555-------------|
E|-666666-------333333--------------------|

10.
G|----------------------------------------|
D|-------8888888--------------------------|
A|-666666-------6666666-8888888-----------|
E|----------------------------------------|

11.
G|----------------------------------------|
D|----------------------------------------|
A|-------8888888------5555555-------------|
E|-666666-------333333--------------------|

12.
G|----------------------------------------|
D|-------8888888--------------------------|
A|-666666-------6666666-8888888-----------|
E|----------------------------------------|

Chorus
"A dos casas de ti..." 
13.
G|--------------------------------------------|
D|--------------------------------------------|
A|--------8888888-------5555555-6-6---6-6-8-8-|--x2
E|-6666666-------3333333-----------6-6--------|

Bridge
14.
G|---3/2---3/2----------------------------|
D|-5-----3-----1-1-1-1-1-1-1-1------------|
A|----------------------------------------|
E|----------------------------11x-11x-----|

Chorus
"A dos casas de ti..."
14.
G|--------------------------------------------|
D|-----555555----222222-3333------3333-555555-|
A|-3333------0000-----------333333------------|--x4
E|--------------------------------------------|

Outro
10.
G|---------------------------|
D|---------------------------|
A|-88-888-8-10-1010----------|
E|---------------------------|


Lyrics:


Voi a contar la historia de Juan
Aunque no es una linda historia
No creas que es refacil contar
De cosas que tendra en la memoria

Juan tenía que trabajar
Mientras sus amigos jugaban
De noche tenía que soportar
Los golpes que su madre le daba

Estupido pendejo 
Le gritaba su papá
Y lo vuelve a patear

A dos casas de ti o a tres calles de aquí
Siempre habrá un pendejo igual al pobre Juan
Que no quiere llegar, que no puede llegar
Otra vez a casa que ya no aguanta mas

Y si dependiera de mi
Talvez ya lo habria matado
Pero preferia pensar
Que las cosas pasan por algo

Y pasó que la defendió
Despues de todo era su madre
Un forsejeo en la habitación
Terminó en un puto desastre

Estupido pendejo
Un disparo al azar
Maldita casualidad



+++++++++++++++++++++++++++++++++
| RaiLeff                       |
| Underground__Dora@Hotmail.Com |
+++++++++++++++++++++++++++++++++
Добавлено: 03.06.2012
Другие материалы по этой песне:
  • Аккорды и текст

Страница создана 03.06.2012
http://primanota.ru/gufi/la-historia-de-juan-chords.htm
Привет, Гость.
Предлагаем пройти революционный курс по гитаре.
Подарок от PrimaNota.Ru, забирай!