PrimaNota.ru - самый крупный в мире бесплатный архив песенных текстов, аккордов, табулатур и нот


Gufi - Eso Es Lo Que Soy - таба, бас-таба, видео

Регистрация Запомнить меня
Войти через:  Facebook Google Twitter Vk Yandex Mail.ru

Gufi - Eso Es Lo Que Soy - таба, бас-таба, видео

Печатать
Просмотров: 151
+++++++++++++++++++++++++++
| Gufi- Eso Es Lo Que Soy |
+++++++++++++++++++++++++++


"Voy a buscarte a ti..."

Tuning: EADGBe



Intro
1.
e|-----------------------------------------------|
B|-----------------------------------------------|
G|-----------------------------------------------|
D|-----------------------------------------------|
A|--------------------------------------------7\-|
E|-----------------------------------------------|

2.
e|------------------------------------------------------------------------------------|
B|------------------------------------------------------------------------------------|
G|-------------------------------------------------------------------2~---------------|
D|-----2~------------------------3x-3x-3x-3------2~--------3~----3-3----3--5x-5x-5x-5-|
A|-3-3----3------5~-2------7~----3x-3x-3x-3--3-3----3--5-5----5------------5x-5x-5x-5-|
E|-----------3-3-------5-5----5--1x-1x-1x-1--------------------------------3x-3x-3x-3-|

Verse
"Me despierto tarde para almorzar..."
3.
e|--------------------------------------------------------------------|
B|-----------------------------------1-1-1-1-1-1-1-1-1-1-1-1-1-1-1-1--|
G|-5~---------------------------------0-0-0-0-0-0-0-0-0-0-0-0-0-0-0-0-|
D|-5~-----------------------------------------------------------------|
A|-3~-----------------------------------------------------------------|
E|--------------------------------------------------------------------|
                                     -----------PALM-MUTE------------

"Mi madre dijo que de seguir asi..."
4.
e|-------------------------------------------------------------------------|
B|-------------------------------------------------------------------------|
G|-55555555-55555555-------------------55555555-55555555-------------------|
D|-55555555-55555555-55555555-33333333-55555555-55555555-55555555-33333333-|
A|-33333333-33333333-55555555-33333333-33333333-33333333-55555555-33333333-|
E|-------------------33333333-11111111-------------------33333333-11111111-|

Pre-Chorus
"Ayer hablé con mi padre..."
5.
e|-----------------------------------------------------------------------------|
B|-----------------------------------------------------------------------------|
G|-22222222------------------------------55555555------------------------------|
D|-00000000-2~---3~---55555555-----------55555555-0~---2~---33333333-----------|
A|--------------------55555555-0~---2~---33333333-----------33333333-----------|
E|--------------------33333333------------------------------11111111-3~---5~---|

"Oh que loco sentirse así..."
6.
e|----------------------------------------|
B|----------------------------------------|
G|-22222222-------------------------------|
D|-00000000-0h222-2h333-55555555-55555555-|
A|----------------------55555555-55555555-|
E|----------------------33333333-33333333-|

Chorus
"Eso es todo lo que soy..."
7.
e|-----------------------------------------------------------------------|
B|-----------------------------------------------------------------------|
G|-55555555---------------------------55555555---------------------------|
D|-55555555-55555555-77777777--3x--3x-55555555-55555555-77777777--3x--3x-|
A|-33333333-55555555-77777777--3x--3x-33333333-55555555-77777777--3x--3x-|
E|----------33333333-55555555--1x--1x----------33333333-55555555--1x--1x-|

"Na na na..."
8.
e|------------------------------------------------------------------------------|
B|------------------------------------------------------------------------------|
G|-55555555-------------------------------55555555-22222222---------------------|
D|-55555555-55555555-77777777-3x-3x-3x-3--55555555-00000000-33333333-5x-5x-5x-5-|
A|-33333333-55555555-77777777-3x-3x-3x-3--33333333----------33333333-5x-5x-5x-5-|
E|----------33333333-55555555-1x-1x-1x-1--------------------11111111-3x-3x-3x-3-|

Verse
"Mi vecina dice que así estoy bien..."
9.
e|--------------------------------------------------------------------|
B|-----------------------------------1-1-1-1-1-1-1-1-1-1-1-1-1-1-1-1--|
G|-5~---------------------------------0-0-0-0-0-0-0-0-0-0-0-0-0-0-0-0-|
D|-5~-----------------------------------------------------------------|
A|-3~-----------------------------------------------------------------|
E|--------------------------------------------------------------------|
                                     -----------PALM-MUTE------------

"Sé que tiene una hija como yo..."
10.
e|-------------------------------------------------------------------------|
B|-------------------------------------------------------------------------|
G|-55555555-55555555-------------------55555555-55555555-------------------|
D|-55555555-55555555-55555555-33333333-55555555-55555555-55555555-33333333-|
A|-33333333-33333333-55555555-33333333-33333333-33333333-55555555-33333333-|
E|-------------------33333333-11111111-------------------33333333-11111111-|

Pre-Chorus
"Voy a salir..."
11.
e|-----------------------------------------------------------------------------|
B|-----------------------------------------------------------------------------|
G|-22222222------------------------------55555555------------------------------|
D|-00000000-2~---3~---55555555-----------55555555-0~---2~---33333333-----------|
A|--------------------55555555-0~---2~---33333333-----------33333333-----------|
E|--------------------33333333------------------------------11111111-3~---5~---|

"Voy a buscarte a ti..."
12.
e|----------------------------------------|
B|----------------------------------------|
G|-22222222-------------------------------|
D|-00000000-0h222-2h333-55555555-55555555-|
A|----------------------55555555-55555555-|
E|----------------------33333333-33333333-|

Chorus
"Eso es todo lo que soy..."
13.
e|-----------------------------------------------------------------------|
B|-----------------------------------------------------------------------|
G|-55555555---------------------------55555555---------------------------|
D|-55555555-55555555-77777777--3x--3x-55555555-55555555-77777777--3x--3x-|
A|-33333333-55555555-77777777--3x--3x-33333333-55555555-77777777--3x--3x-|
E|----------33333333-55555555--1x--1x----------33333333-55555555--1x--1x-|

"Na na na..."
14.
e|------------------------------------------------------------------------------|
B|------------------------------------------------------------------------------|
G|-55555555-------------------------------55555555-22222222---------------------|
D|-55555555-55555555-77777777-3x-3x-3x-3--55555555-00000000-33333333-5x-5x-5x-5-|
A|-33333333-55555555-77777777-3x-3x-3x-3--33333333----------33333333-5x-5x-5x-5-|
E|----------33333333-55555555-1x-1x-1x-1--------------------11111111-3x-3x-3x-3-|

Outro
15.
e|-------------------------------------------------------------------------------|
B|-------------------------------------------------------------------------------|
G|-----------0--------------------------------------0----------------------------|
D|-----2~------2-----------0~--------0~-------2~------2-----------0~--------0~---|
A|-3-3-----3-----3~------3----3----2----2-3-3-----3-----3~------3----3----2------|
E|------------------0-1~--------3~-------------------------0-1~--------3~------3-|
   C                  F         G         C                  F         G
 
Bridge
"Justo ahí, frente a mi..."      en Acustica
16.
e|-1~--1~-1~-1-1--3~--3~-3~-3-3--0~--0~-0~-0-0--1~--1~-1~-1-1-|
B|-3~--3~-3~-3-3--0~--0~-0~-0-0--1~--1~-1~-1-1--1~--1~-1~-1-1-|
G|-2~--2~-2~-2-2--0~--0~-0~-0-0--0~--0~-0~-0-0--2~--2~-2~-2-2-|
D|-0~--0~-0~-0-0--0~--0~-0~-0-0--2~--2~-2~-2-2--3~--3~-3~-3-3-|
A|----------------2~--2~-2~-2-2--3~--3~-3~-3-3--3~--3~-3~-3-3-|
E|----------------3~--3~-3~-3-3-----------------1~--1~-1~-1-1-|
   Dm             G              C              F


"Nos miramos, vomitamos..."
17.
e|------------------------------------|
B|------------------------------------|
G|-7~---------------------------------|
D|-7~---------------5x----------------|
A|-5~---------------5x----------------|
E|------------------3x----------------|

Chorus
"Eso es todo lo que soy..."
18.
e|-----------------------------------------------------------------------|
B|-----------------------------------------------------------------------|
G|-55555555---------------------------55555555---------------------------|
D|-55555555-55555555-77777777--3x--3x-55555555-55555555-77777777--3x--3x-|
A|-33333333-55555555-77777777--3x--3x-33333333-55555555-77777777--3x--3x-|--x2
E|----------33333333-55555555--1x--1x----------33333333-55555555--1x--1x-|

"Na na na..."
19.
e|------------------------------------------------------------------------------|
B|------------------------------------------------------------------------------|
G|-55555555-------------------------------55555555-22222222---------------------|
D|-55555555-55555555-77777777-3x-3x-3x-3--55555555-00000000-33333333-5x-5x-5x-5-|
A|-33333333-55555555-77777777-3x-3x-3x-3--33333333----------33333333-5x-5x-5x-5-|
E|----------33333333-55555555-1x-1x-1x-1--------------------11111111-3x-3x-3x-3-|

Outro
20.
e|-----------------------------------|
B|-----------------------------------|
G|-5~--------------------------------|
D|-5~--------------------------------|
A|-3~--------------------------------|
E|-----------------------------------|


Please rate thank you!!


Lyrics:

Me despierto tarde para almorzar
Aún no recuerdo bien a que hora llegé
No me he duchado en mas de dos semanas ya
Algo huele mal, parece que soy yo

Mi madre dijo qe de seguir así
Me debería marchar, buscar otro lugar
Mi ex-novia dijo que de seguir asi
Me debería buscar una que huela mal

Ayer hablé con mi padre,
Me llamó tarde estaba ebrio
Dijo qe por mi culpa se marchó de casa
y que no valgo nada
Oh que loco sentirse así
Con ganas de escupir la cara de todos de aqui!

Eso es todo lo que soy, eso es todo lo que fuí
Eso es lo que yo seré, eso es lo que soy

Mi vecina dice que así estoy bien
Pero yo se que lo dise porque yo
Siempre le llevo algo para fumar
Y tiene 33, tiene 33

Se que tiene una hija como yo
Que tiene 16, que tiene 16
Se fue un día despues que la descubrió
Masturbandose, en su habitación

Voy a salir a caminar
Voy a buscar alguien en quien confiar
Voy a buscarte a ti...

Justo ahí frente a mi
Una chica, parece triste
Sentada en la escalera 
Se nota que ha tomado
Mas de la cuenta
Nos miramos
Vomitamos!



+++++++++++++++++++++++++++++++++
| RaiLeff                       |
| Underground__Dora@Hotmail.Com |
+++++++++++++++++++++++++++++++++
Добавлено: 21.07.2012
Другие материалы по этой песне:
  • Аккорды и текст

Страница создана 07.03.2012
http://primanota.ru/gufi/eso-es-lo-que-soy-chords.htm
Привет, Гость.
Предлагаем пройти революционный курс по гитаре.
Подарок от PrimaNota.Ru, забирай!