PrimaNota.ru - самый крупный в мире бесплатный архив песенных текстов, аккордов, табулатур и нот


Guff - No Gods No Masters - таба, видео

Регистрация Запомнить меня
Войти через:  Facebook Google Twitter Vk Yandex Mail.ru

Guff - No Gods No Masters - таба, видео

Печатать
Просмотров: 209
-------------------------------------------------------------------------------
                             No Gods, No Masters - Guff
-------------------------------------------------------------------------------
Tabbed by: Dave "Alhazred"
Email: theshroom420@hotmail.com

http://www.myspace.com/guff

Tuning: Standard EADGBe

e|---------------------------------|
B|---------------------------------|
G|--5-5---5-5---5-5---5/6--5/6-----|  X2 (For lead guitar, rhythm repeats
D|---------------------------------|      this riff throughout the next lead)
A|--3-3---3-3---3-3---3/4--3/4-----|
E|---------------------------------|

e|--------------------------------------------------------------------------|
B|---------8-8-------8-8-----6-6-----6-6-----4-4-----4-4-----3-3-----3-3----|
G|--------------------------------------------------------------------------|
D|---10-10-----10-10-----8-8-----8-8-----6-6-----6-6-----5-5-----5-5--------|
A|--------------------------------------------------------------------------|
E|--------------------------------------------------------------------------|

X2, then

e|--------------------------------------------------------------|
B|---------8-8-------8-8-----6-6-----6-6-----8-8-----8-8----13--|
G|--------------------------------------------------------------|
D|---10-10-----10-10-----8-8-----8-8----10-10---10-10-----------|
A|--------------------------------------------------------------|
E|--------------------------------------------------------------|

Pickslide into next riff:

Rhythm plays a C octave repeatedly throughout, while I think lead is playing this over it:

"Raise your hands..."
e|--------------------------------------------------------------------------|
B|---8-8-8-8-9-9-9-9-6-6-6-6-4-4-4-4-8-8-8-8-6-6-6-6-4-4-4-4-6-6-6-6--------|
G|--------------------------------------------------------------------------|
D|---5-5-5-5-6-6-6-6-3-3-3-3-1-1-1-1-5-5-5-5-3-3-3-3-1-1-1-1-4-4-4-4--------|
A|--------------------------------------------------------------------------|
E|--------------------------------------------------------------------------|


Postchorus:
e|--------------------------------------------------------------------------|
B|--------------------------------------------------------------------------|
G|---5----10-8--7--8--7--3--5-----8--7--3-3-3--5-----10-8--7--8--6--3--5----|
D|---5----10-8--7--8--7--3--5-----8--7--3-3-3--5-----10-8--7--8--6--3--5----|
A|---3-----8-6--5--6--5--1--3-----6--5--1-1-1--3------8-6--5--6--4--1--3----|
E|--------------------------------------------------------------------------|

*drum fill*

Slight variation on verse
"Do you ever get..."
e|------------------------------------------------------------------------------|
B|---------13-13------13-13-----11-11-----11-11-----9-9-----9-9-----8-8-----8-8-|
G|------------------------------------------------------------------------------|
D|---10-10------10-10-------8-8-------8-8-------6-6-----6-6-----5-5-----5-5-----|
A|------------------------------------------------------------------------------|
E|------------------------------------------------------------------------------|

e|--------------------------------------------------------------------------|
B|---------13-13------13-13-----11-11-----11-11-----9-9-----9-9-------------|
G|---------------------------------------------------------------5-5-5------|
D|---10-10------10-10-------8-8-------8-8-------6-6-----6-6-----------------|
A|---------------------------------------------------------------3-3-3------|
E|--------------------------------------------------------------------------|

"So close..your..eyes.."
(don't need the extra note on E string..I just like thicker sounds for parts like these)
e|---------------------------------------|
B|---------------------------------------|
G|---5-5-5-5-3-3-3-3-4-4-4-4---4--4--4---| X2
D|---5-5-5-5-3-3-3-3-6-6-6-6---4--4--4---| 
A|---3-3-3-3-1-1-1-1-6-6-6-6---2--2--2---|
E|---3-3-3-3-1-1-1-1-4-4-4-4-------------|

e|---------------------------------------|
B|8-8-8-8-6-6-6-6-4-4-4-4-6-6-6-6--------|
G|---------------------------------------|
D|5-5-5-5-3-3-3-3-1-1-1-1-3-3-3-3--------|
A|---------------------------------------|
E|---------------------------------------|

Postchorus:
e|--------------------------------------------------------------------------|
B|--------------------------------------------------------------------------|
G|---5----10-8--7--8--7--3--5-----8--7--3-3-3--5-----10-8--7--8--6--3--5----|
D|---5----10-8--7--8--7--3--5-----8--7--3-3-3--5-----10-8--7--8--6--3--5----|
A|---3-----8-6--5--6--5--1--3-----6--5--1-1-1--3------8-6--5--6--4--1--3----|
E|--------------------------------------------------------------------------|

"From this hell..."
e|--------------------------------|
B|--------------------------------|
G|--------------------------------|
D|-------------6-5----------------|
A|---5-5-5-5--------6-5-----------|
E|---3-3-3-3------------6-8-------|

This is as far as I can get, I don't have the interlude tabbed out

************************************

| /   slide up
| \   slide down
| h   hammer-on
| p   pull-off
| ~   vibrato
| +   harmonic
| x   Mute note
| b   Bend
| pb  Pre-bend
| br  Bend release
| pbr Pre-bend release
| brb Bend release bend

***********************************
Добавлено: 11.03.2012
Другие материалы по этой песне:
  • Аккорды и текст

Страница создана 11.03.2012
http://primanota.ru/guff/no-gods-no-masters-chords.htm
Привет, Гость.
Предлагаем пройти революционный курс по гитаре.
Подарок от PrimaNota.Ru, забирай!