PrimaNota.ru - самый крупный в мире бесплатный архив песенных текстов, аккордов, табулатур и нот


Guess Who - Share The Land Together - таба, видео

Регистрация Запомнить меня
Войти через:  Facebook Google Twitter Vk Yandex Mail.ru

Guess Who - Share The Land Together - таба, видео

Печатать
Просмотров: 104
The Guess Who - Share the Land (Together)

Verse Chords: 
Bm=799777   E=x7999x  G=355433   A=577655   D=x5777x   F#7=242322

Chorus Chords:
B  = x2444x   F# = 244322    E  = 022100


Intro Riff (RP80=41,49,63,74) (Magic Stomp P05)
Gtr I
|-17^(19)--17^(19)----------------------17^(19)--17^(19)---19----------|
|--------------------17-15-17----------------------------------17~~~~--|
|-------------------------------16-------------------------------------|
|----------------------------------------------------------------------|
|----------------------------------------------------------------------|
|----------------------------------------------------------------------|
Gtr II
|----------------------------------------------------------------------|
|--7~~~~~-----------------------9~~~~---7~--------7~--------10~-9~~~~~-|
|----------------------------------------------------------------------|
|----------------------------------------------------------------------|
|----------------------------------------------------------------------|
|----------------------------------------------------------------------|


[Bm]                  [E]
Have you been around? have you done your share of comin' down?

[G]         [A]                 [D]     [F#7]
On different things that people  do

[Bm]                  [E]
Have you been aware   you got brothers and sisters who care?

[G]               [A]                          [D]     [F#7]
About what's gonna happen to you in a year from now



{Repeat Chorus 2x}

     [B]                    [F#]
     Maybe I'll be there to shake your hand

     [E]                    [B]
     Maybe I'll be there to share the land

                     [F#]            [E]          [B]
     That they'll be givin' away when we all live together

     [B]   E][E] [B] [B]
     I'm talkin' 'bout together


 {Intro RIFF}


[Bm]                  [E]
Did you pay your dues? did you read the news?

[G]                  [A]                  [D]     [F#7]
This mornin' when the paper landed in your yard

[Bm]                    [E]
Do you know their names? Can you play their games?

[G]           [A]                             [D]     [F#7]
Without losin' track and comin' down a bit too hard

  {Chorus 2x}

Solo 2x:           (RP80=41,49,63,74) (Magic Stomp P05)
Gtr I
|-17^19-17^19----------------------------------------------------------21~~|
|-------------17-15-17---15v--17/19-17--------17-19-17-----------17-19-----|
|---------------------16--------------19-16-19--------19-16-19-------------|
|--------------------------------------------------------------------------|
|--------------------------------------------------------------------------|
|--------------------------------------------------------------------------|
Gtr II
|--------------------------------------------------------------------------|
|-7~~~--7~~~--10~~----9~~-------8~~---10~~~~----------10~~~~-----------11~~|
|--------------------------------------------------------------------------|
|--------------------------------------------------------------------------|
|--------------------------------------------------------------------------|
|--------------------------------------------------------------------------|

{Acapella}
   Shake your hand, share the land 
   You know that I'll be standin' by to help you if you worry
   No more sadness, no more sorrow, and no more bad times

{Repeat B  F#  E  B  F# E ..... to fade}
Every day come sunshine, every day everybody laughin'
Walkin' together by the river walkin' together and laughin'
Everybody singin' together everybody singin' and laughin'
Good times, good times everybody walkin' by the river now
Walkin', singin', talkin' smilin', laughin', digging each other
Everybody happy together I'll be there to worry if you need me
Call on me, call on me call my name, I'll be runnin' to help you
Everybody walkin' by the river now
Everybody, everybody laughin' everybody singin' and talkin'
Smilin', laughin', digging each other...





Добавлено: 25.04.2012
Другие материалы по этой песне:
  • Аккорды и текст

Страница создана 25.04.2012
http://primanota.ru/guess-who/share-the-land-together-chords.htm
Привет, Гость.
Предлагаем пройти революционный курс по гитаре.
Подарок от PrimaNota.Ru, забирай!