PrimaNota.ru - самый крупный в мире бесплатный архив песенных текстов, аккордов, табулатур и нот


Guess Who - Share the land new mother nature - бас-таба, видео

Регистрация Запомнить меня
Войти через:  Facebook Google Twitter Vk Yandex Mail.ru

Guess Who - Share the land new mother nature - бас-таба, видео

Печатать
Просмотров: 152


Share The Land/New Mother Nature(intro).btab
Guess Who
TablEdited by Poppamies
Tuning : E A D G 	Time Signature: 4/4

 tempo 162       |       |        |       |       |       |
|--------------------------------|----9---7-------4---------------|
|------sever bars without bass---|------------------------7/--5---|
|--------------------------------|--------------------------------|
|--------------------------------|--------------------------------|

 |       |       |       |        |       |       |       |
|--------------------------------|0-------------------------------|
|--------------------------------|------2-0---------------0-------|
|7-------7-----------------------|----------------2---2-------2---|
|--------------------------------|--------------------------------|

 |       |       |       |        |       |       |       |
|--------------------------------|--------------------------------|
|2-------------------------------|----------------------0-1-----0-|
|--------------------------------|0-----0-1-------2---------------|
|--------0-------3/4-------------|--------------------------------|

 |       |       |       |        |       |       |       |
|--------------------------------|0-------------------------------|
|2-------2-----------------------|------2-0---------------0-------|
|--------------------------------|----------------0---0-------2---|
|--------------------------------|--------------------------------|

 |       |       |       |        |       |       |       |
|--------------------------------|--------------------------------|
|2-------0-----------------------|------------------------2---0---|
|----------------2-------0-------|--------0-------1---------------|
|--------------------------------|3-----3-------------0-----------|

 |       |       |       |        |       |       |       |
|--------------------------------|--------------------------------|
|2-------------------------------|----------------------------0---|
|--------------------------------|--------0-------1-----1-2-------|
|--------0-------------------0---|3-------------------------------|

 |       |       |       |        |       |       |       |
|--------------------------------|0-------------------------------|
|0-------2-----------------------|------2-0---------------0-------|
|--------------------------------|----------------0-----2-------2-|
|--------------------------------|--------------------------------|

 |       |       |       |        |       |       |       |
|--------------------------------|--------------------------------|
|2---------------2---------------|--------------------------------|
|--------------------------------|--------0-------1-------2-------|
|--------0-------------------0---|0-------------------------------|

 |       |       |       |        |       |       |       |
|--------------------------------|--------0---0---0---------------|
|0-------2-----------------------|--------------------2---0-------|
|--------------------------------|----------------------------2---|
|--------------------------------|--------------------------------|


Transcribe  6.0 transcription http://www.seventhstring.demon.co.uk/
Created with TablEdit http://www.tabledit.com/
http://www.geocities.com/jani_bjorklund/janis.html


Добавлено: 21.11.2013
Другие материалы по этой песне:
  • Аккорды и текст

Страница создана 21.11.2013
http://primanota.ru/guess-who/share-the-land-new-mother-nature-chords.htm
Привет, Гость.
Предлагаем пройти революционный курс по гитаре.
Подарок от PrimaNota.Ru, забирай!