PrimaNota.ru - самый крупный в мире бесплатный архив песенных текстов, аккордов, табулатур и нот


Guerilla Poubelle - Si Jamais - таба, видео

Регистрация Запомнить меня
Войти через:  Facebook Google Twitter Vk Yandex Mail.ru

Guerilla Poubelle - Si Jamais - таба, видео

Печатать
Просмотров: 95
Уроки эстрадного вокала в Санкт-Петербурге
"Si Jamais" - Guerilla Poubelle


Intro : 

e------| 
B------| 
G------| 
D--2---|   x4 (after the 4th do a pick slide) 
A--2---| 
E--0---| 

e-------------------------------------| 
B-------------------------------------| 
G-9-9999-1010-10-9999-99--------------| 
D-9-9999-1010-10-9999-99-88-7-8-7-8---|   x2 
A-7-7777-8888-8--7777-77-88-7-8-7-8---| 
E------------------------66-5-6-5-6---| 


Verse 1 : 

e------------------------------| 
B------------------------------| 
G--------1010-10---------------| 
D--------1010-10--88-7-8-7-8---|    x2 
A--------8888-8---88-7-8-7-8---| 
E-----------------66-5-6-5-6---| 


Chorus : 

e--------------------------------| 
B--------------------------------| 
G-999-77-777-7-------------------| 
D-999-77-777-7--222-222-222-222--|   x2 
A-777-55-555-5--222-222-222-222--| 
E---------------000-000-000-000--| 


Post-chorus : 

e------------------| 
B------------------| 
G------------------| 
D-2-222-8-88-7-5-2-|  x4 
A-2-222-8-88-7-5-2-| 
E-0-000-6-66-5-3-0-| 


Verse 2 : 

Nothing !!! 


Break :

e------|         (Break on bass :)
B------| 
G------|         G----------------------------------------------------| 
D-2222-|         D----------------------------------------------------| 
A-2222-|         A----------------------------------------5-----------| 
E-0000-|         E--0-00-6-6-5-6-5-6-00-00-66-8-6-8-00-00---5-0-00000-| 


Verse 3 : 

e------|        
B------| 
G------|          
D-2222-|    x1         
A-2222-|          
E-0000-| 


End :  

e-------------------------------------| 
B-------------------------------------| 
G-9-9999-1010-10-9999-99--------------| 
D-9-9999-1010-10-9999-99-88-7-8-7-8---|   x2 
A-7-7777-8888-8--7777-77-88-7-8-7-8---| 
E------------------------66-5-6-5-6---| 


e--------------------------| 
B--------------------------| 
G-9-999-88-888-7777-6666---| 
D-9-999-88-888-7777-6666-2-| 
A-7-777-66-666-5555-4444-2-| 
E------------------------0-| 
Добавлено: 28.07.2013
Вам также может быть интересно:
Другие материалы по этой песне:
  • Аккорды и текст

Страница создана 28.07.2013
http://primanota.ru/guerilla-poubelle/si-jamais-chords.htm
Привет, Гость.
Предлагаем пройти революционный курс по гитаре.
Подарок от PrimaNota.Ru, забирай!