PrimaNota.ru - самый крупный в мире бесплатный архив песенных текстов, аккордов, табулатур и нот


Guerilla Poubelle - Punk Rock Is Not A Job - таба, видео

Регистрация Запомнить меня
Войти через:  Facebook Google Twitter Vk Yandex Mail.ru

Guerilla Poubelle - Punk Rock Is Not A Job - таба, видео

Печатать
Просмотров: 86
"Punk rock is not a job" - Guerilla Poubelle


e------------------------|
B------------------------|
G--9-----7----9-----7----|
D--9--7--7----9--7--7--5-| x1
A--7--7--5----7--7--5--5-|
E-----5----------5-----3-|

Guitar 1
e----------------------------------------------|
B----------------------------------------------|
G-9-999-999-9-------------777-777-77-----------|
D-9-999-999-9--55-5555-55-777-777-77-77-7777---| x2
A-7-777-777-7--55-5555-55-555-555-55-77-7777---|
E--------------33-3333-33------------55-5555---|

Guitar 2
(second guitar enters on second time)
e-----------------------------------------------------------|
B-----------------------------------------------------------|
G--9-999-11-12-11-9-999-11-12-11-9-999-11-12-11-9-9999-7-9--|
D-----------------------------------------------------------|
A-----------------------------------------------------------|
E-----------------------------------------------------------|


Post-verse :

Guitar 1
e--------------------------------------------------|
B--------------------------------------------------|
G--9999-9999-999-77777-7777-7----------------------|
D--9999-9999-999-77777-7777-7--5-5555555555555555--| x2
A--7777-7777-777-55555-5555-5--5-5555555555555555--|
E------------------------------3-3333333333333333--|

Guitar 2
(second guitar enters on second time)
e--------------|
B--------------|
G-9--7--5-4-5--|
D--------------|
A--------------|
E--------------|
Добавлено: 12.06.2013
Другие материалы по этой песне:
  • Аккорды и текст

Страница создана 12.06.2013
http://primanota.ru/guerilla-poubelle/punk-rock-is-not-a-job-chords.htm
Привет, Гость.
Предлагаем пройти революционный курс по гитаре.
Подарок от PrimaNota.Ru, забирай!