PrimaNota.ru - самый крупный в мире бесплатный архив песенных текстов, аккордов, табулатур и нот


Guerilla Poubelle - Demain Il Pleut - таба, видео

Регистрация Запомнить меня
Войти через:  Facebook Google Twitter Vk Yandex Mail.ru

Guerilla Poubelle - Demain Il Pleut - таба, видео

Печатать
Просмотров: 137
----------------------------------------------------------------------------
                        Demain Il Pleut - Guerilla Poubelle
----------------------------------------------------------------------------

Tabbed by:Bassface01
Email: guneagleluke@charter.net

Tuning: Standard (eBGDAE)

Intro:
e|----------------------------------------------|
B|----------------------------------------------|
G|-5-5-5-5-5-5-5-5--9--9--9--9--9--9--9--9------|
D|-6-6-6-6-6-6-6-6--10-10-10-10-10-10-10-10-----| x6
A|-6-6-6-6-6-6-6-6--10-10-10-10-10-10-10-10-----|
E|-4-4-4-4-4-4-4-4--8--8--8--8--8--8--8--8------|
   x x x x x x x x  x  x  x  x  x  x  x  x

End this riff on the first chord G#

Verse:
e|--------------------------------------------|
B|--------------------------------------------|
G|-9--9--9--9--9--9--9--9--5-5-5-5-5-5-5-5----|
D|-10-10-10-10-10-10-10-10-6-6-6-6-6-6-6-6----|
A|-10-10-10-10-10-10-10-10-6-6-6-6-6-6-6-6----|
E|-8--8--8--8--8--8--8--8--4-4-4-4-4-4-4-4----|

End on the G#


Chorus:
e|----------------------------------------------|
B|----------------------------------------------|
G|-5-5-5-5-5-5-5-5--9--9--9--9--9--9--9--9------|
D|-6-6-6-6-6-6-6-6--10-10-10-10-10-10-10-10-----| 
A|-6-6-6-6-6-6-6-6--10-10-10-10-10-10-10-10-----|
E|-4-4-4-4-4-4-4-4--8--8--8--8--8--8--8--8------|
   
Post Chorus:
e|----------------------------------------|
B|----------------------------------------|
G|-5---5-4-2-9----5---5-4-2-9-----9-------|
D|-6---6-5-3-10---6---6-5-3-10----10------|
A|-6---6-5-3-10---6---6-5-3-10----10------|
E|-4---4-3-1-8----4---4-3-1-8-88888-8888--|

e|--------------------------------|
B|--------------------------------|
G|-5----5-4-2-9-----9-------------|
D|-6----6-5-3-10----10------------| x2
A|-6----6-5-3-10----10------------|
E|-444444-3-1-8-88888-888888------|

e|---------------------------------------|
B|---------------------------------------|
G|---------------------------------------|
D|----------------------------------10b--|
A|---------------------------------------|
E|-4----------8--------34--------8-------|

e|-----------------------------------------|
B|-----------------------------------------|
G|-----------------------------------------|
D|------------------------------------/x---|
A|------------------------------------/x---|
E|-4----------8--------34--------8---------|
                                     Pick Scrape

Verse 2:
Guitar does not play for a while but comes in with
this after a little bit
e|---------------------------------|
B|---------------------------------|
G|--5--5--5--5--9---9---9---9------|
D|--6--6--6--6--10--10--10--10-----| x2
A|--6--6--6--6--10--10--10--10-----|
E|--4--4--4--4--8---8---8---8------|

This part is kind of hard because these chords are on the off-beats


Chorus:
e|----------------------------------------------|
B|----------------------------------------------|
G|-5-5-5-5-5-5-5-5--9--9--9--9--9--9--9--9------|
D|-6-6-6-6-6-6-6-6--10-10-10-10-10-10-10-10-----| 
A|-6-6-6-6-6-6-6-6--10-10-10-10-10-10-10-10-----|
E|-4-4-4-4-4-4-4-4--8--8--8--8--8--8--8--8------|

Post-Chorus 2:
e|-----------------------------------------|
B|-----------------------------------------|
G|-5---5-4-2-9----5----5-4-2-9-----9-------|
D|-6---6-5-3-10---6----6-5-3-10----10------|
A|-6---6-5-3-10---6----6-5-3-10----10------|
E|-4---4-3-1-8----444444-3-1-8-88888-8888--|

e|--------------------------------|
B|--------------------------------|
G|-5----5-4-2-9-----9-------------|
D|-6----6-5-3-10----10------------| 
A|-6----6-5-3-10----10------------|
E|-444444-3-1-8-88888-888888------|

e|------------------------------------------------------|
B|------------------------------------------------------|
G|------------------------------------------------------|
D|1313131313131313-12-10-1313131313131315-13-12---------|
A|x-x-x-x-x-x-x-x--x--x--x-x-x-x-x-x-x-x--x--x----------|
E|1111111111111111-10-8--1111111111111113-11-10---------|

e|-----------------------------------------------|
B|-----------------------------------------------|
G|-----------------------------------------------| These entire 2 riffs x2
D|13131313131313-12-10-13131313131313--17171717--|
A|x-x-x-x-x-x-x--x--x--x-x-x-x-x-x-x---x-x-x-x---|
E|11111111111111-10-8--111111111111111-15151515--|

e|-------------------------------------------------------|
B|-------------------------------------------------------|
G|-5--5--5--5--9---9---9---9---5--5--5--5------9------9--| x2
D|-6--6--6--6--10--10--10--10--6--6--6--6------10-----10-|
A|-6--6--6--6--10--10--10--10--6--6--6--6--101010-101010-|
E|44--4--4--4--8---8---8---8---4--4--4--4--8-8-8--8-8-8--|
                                           x x    x x
On the second time just hold the C chord

Verse 3:
Again the guitar does not play for a while until this
e|----------------------------------|
B|----------------------------------|
G|5--------9------45--------9-------|
D|6--------10-----56--------10------| x2
A|6--------10-----56--------10------|
E|4--------8------34--------8-------|


Chorus:
e|----------------------------------------------|
B|----------------------------------------------|
G|-5-5-5-5-5-5-5-5--9--9--9--9--9--9--9--9------|
D|-6-6-6-6-6-6-6-6--10-10-10-10-10-10-10-10-----| 
A|-6-6-6-6-6-6-6-6--10-10-10-10-10-10-10-10-----|
E|-4-4-4-4-4-4-4-4--8--8--8--8--8--8--8--8------|

Ending:
e|-----------------|
B|-----------------|
G|5----4----9------|
D|6----5----10-----|
A|6----5----10-----|
E|4----3----8------|

To get that noise on the guitar flip your pickup switch up and down while holding the last chord.
Also, another guitar does a pickup scrape while the other holds the chord.
End the song on the C Chord.




| /  slide up
| \  slide down
| h  hammer-on
| p  pull-off
| ~  vibrato
| +  harmonic
| x  Mute note
============================================================================
Добавлено: 21.04.2012
Другие материалы по этой песне:

Страница создана 03.04.2012
http://primanota.ru/guerilla-poubelle/demain-il-pleut-chords.htm
Привет, Гость.
Предлагаем пройти революционный курс по гитаре.
Подарок от PrimaNota.Ru, забирай!