PrimaNota.ru - самый крупный в мире бесплатный архив песенных текстов, аккордов, табулатур и нот


Guardian - Takin On The World - таба, видео

Регистрация Запомнить меня
Войти через:  Facebook Google Twitter Vk Yandex Mail.ru

Guardian - Takin On The World - таба, видео

Печатать
Просмотров: 129
Уроки эстрадного вокала в Санкт-Петербурге
		   Takin on the world
By:Guardian
Tabbed by: Erick Todd

                                                                        
E---------------------------|--------------------------------------|----
B---------------------------|--------------------------------------|----
G---------------------------|--------------------------------------|----
D---------------------------|--------------------------------------|----
A---------------------------|--------------------------------------|----
E---3--3--3--3--3--3--3--3--|--3--3--3--3--3--3--3--3--3--3--3--3--|----
                                                                        

                                                                        
E---------------------------|-------------------------------------------
B---------------------------|-------------------------------------------
G---------------------------|-------------------------------------------
D---------------------------|-------------------------------------------
A---------------------------|-------------------------------------------
E---3--3--3--3--3--3--3--3--|--3--3--3--3--3--3--3--3--3--3--3--3-------
                                                                        

                                                                        
E---||----------------------------------|-------------------------||----
B---||----------------------------------|-------------------------||----
G---||*---------------------------------|------------------------*||----
D---||*--------------8p7p5--7--5--------|------------------------*||----
A---||------7--5--7---------------7-----|-----7--5--7-------------||----
E---||---0---------------------------5--|--0-----------5^--5--3---||----
                                                                        

    verse                              bridge                           
E-------------------------------||-----------------2--2--2--------------
B---------3-----------------8---||-----------------3--3--3--------------
G---9--7--2-----2--2^--2p0--7--*||-----2--2--2--2--2--2--2--2--2--2-----
D---9--7--0-----------------6--*||-----2--2--2--2-----------2--2--2-----
A---7--5--------------------7---||-----0--0--0--0-----------0--0--0-----
E------------2------------------||--------------------------------------
                                                                        

                      chorus         3x        last time                
E------------------|--||-------------||-----------------|---------------
B------------------|--||-------------||-----------------|---------------
G---2-----------5--|--||*--------7--*||--------------5--|---------------
D---2--2--4--5--5--|--||*--7--5--7--*||--7--5--------5--|---------------
A---0--2--4--5--3--|--||---7--5--5---||--7--5--------3--|---------------
E------0--2--3-----|--||---5--3------||--5--3--2~~~-----|---------------
                                                                        

    back to verse, bridge, chorus                                       
E------------------------------------------||---------------------------
B------------------------------------------||---------------------------
G------------------------------------------||*--------------------------
D------------------------------------------||*--------------------------
A------------------------------------------||------4--4h5--4--4--4------
E------------------------------------------||---0-----------------------
                                                                        

               3x  last time                                            
E--------------||------------------------------||-----------------------
B--------------||------------------------------||-----------------------
G-------------*||------------------------------||*----------------------
D-------5--7--*||------------------5-----5--7--||*--5--(5)^--5----------
A---h5--5--7---||-----4--4h5--4/7-----7--5--7--||---------------7--5----
E-------3--5---||--0---------------------3--5--||-----------------------
                                                                        

                                            3x                          
E-------------------------------------------||--------------------------
B-------------------------------------------||--------------------------
G---------4-------------0------------------*||--------------------------
D------7-----5-------------2---------------*||--------------------------
A---7-----------7--0h2--------0h2-----------||--------------------------
E----------------------------------3--3/5---||--------------------------
                                                                        

    sorry I have no solo                                                
E-----------------------------------------------------------------------
B-----------------------------------------------------------------------
G-----------------------------------------------------------------------
D-----------------------------------------------------------------------
A-----------------------------------------------------------------------
E-----------------------------------------------------------------------
                                                                        



========================================================================
==                       TABLATURE EXPLANATION                        ==
========================================================================

----------                ----------                ----t---
----5h8--- Hammeron       ----(8)--- Ghost          ----6--- Tap
----------                ---------- Note           --------
----5p8--- Pulloff        ----------                --------

----------                ----------                -----p--
----5/8--- Slide Up       -----x---- Dead           -----7-- Pop
----------                ---------- Note           --s-----
----5\8--- Slide Down     ----------                --5----- Slap 

----------                ||------|| Repeat         --------
----5~~~-- Vibrato        ||*----*||                ---5^--- Bend
----------                ||*----*||                --------
----------                ||------||                --------

----------                ----------                --------
-4:------- Time           ----------                --------
-4:------- Signature      ----------                --------
----------                ----------                --------


========================================================================
==      Created with TABESTRY Tab Creation Software for Windows       ==
==               For more info email gse@ocsystems.com                ==
========================================================================
Any questions coments, additions (if you have the solo please email me)

Email Erick@vcfcs.org     
Добавлено: 28.07.2013
Другие материалы по этой песне:
  • Аккорды и текст

Страница создана 28.07.2013
http://primanota.ru/guardian/takin-on-the-world-chords.htm
Привет, Гость.
Предлагаем пройти революционный курс по гитаре.
Подарок от PrimaNota.Ru, забирай!