PrimaNota.ru - самый крупный в мире бесплатный архив песенных текстов, аккордов, табулатур и нот


Guardian - Shoeshine Johnny - таба, видео

Регистрация Запомнить меня
Войти через:  Facebook Google Twitter Vk Yandex Mail.ru

Guardian - Shoeshine Johnny - таба, видео

Печатать
Просмотров: 100
                             Shoeshine Johnny           

                                Guardian                   

                            Tab by Erick Todd                 

  S     v        v           v                             v v   v
e------------------------------------------------------------------
B------------------------------------------------------------------
G------------------10-10-------------------10-10------------------
D-12--0-12-10-11-12-10-10-10-12----10-11-12-10-10-10-12----12-12-12
A-12--0-12-10-11-12-------10-12----10-11-12-------10-12----12-12-12
E------------------------------------------------------------------
                       Intro                                      

  v           v           v     v     v        v        v         
e------------------------------------------------------------------
B------------------------------------------------------------------
G----10-10-----------------3-----5-------10-10-------------10-10---
D-12-10-10-10-12-----------3-----5----12-10-10-12-10-11-12-10-10-10
A-12-------10-12----------------------12-------12-10-11-12-------10
E-----------------8--7--6-----6-----8------------------------------
                          Intro                                   

     v  v  v  v        v                                          
e------------------------------------------------------------------
B------------------------------------------------------------------
G----12-12-12----10-10-----------------3-----5---------------------
D-12-12-12-12-12-10-10-10-12-----------3-----5---------------------
A-12----------12-------10-12---------------------------------------
E-----------------------------8--7--6-----6-----8------------------
                             End Intro                            

        H                    H                                    
e------------------------------------------------------------------
B------------------------------------------------------------------
G--7--7--5--7--7--7--5--7--7--5--7--7--7---------------------------
D--7--7--5--7--7--7--5--7--7--5--7--7--7-10--------7--5--7--5------
A-----------------------------------------8-10-----7--5--7--5------
E--------------------------------------------8---------------------
  Shoeshine..   Setting up...            Seen... To go     (repeat

              P                                                   
e------------------------------------------------------------------
B------------------------------------------------------------------
G-----------------------------------5--5---------------------------
D-10-------10-12-10--5--------7--7--5--5--5--5---------------------
A--8----10-----------5--------7--7--3--3--5--5---------------------
E-----8--------------3--------5--5--------3--3--3--1--3--1--3--1---
  with a wink..      know..  |all kinds..   x3                    

                                                                  
e------------------------------------------------------------------
B--------------------2-----2---------------------------------------
G-----------5--5-----0-----0---------------------------------------
D-----7--7--5--5--------------5--5---------------------------------
A-----7--7--3--3--------------5--5---------------------------------
E-----5--5--------1-----1-----3--3---------------------------------
  last time                        Chorus(power chords)D C F C x2 

                    B                
e------------------------------------------------------------------
B------------------------------------------------------------------
G-13-12----10-12-10-12----13-12----10-12-10-12-10-------13-12----10
D-------12----------------------12----------------12----------12---
A------------------------------------------------------------------
E------------------------------------------------------------------
  Fill                               

x12
e------------------------------------------------------------------
B------------------------------------------------------------------
G-12-10-12-10--9-------------------------10-10-------12-12-12------
D----------------10----------10-10-11-12-10-10-11-12-12-12---------
A----------------------------10-10-11-12-------11-12---------------
E------------------------------------------------------------------
Repeat Verse,Chorus, Fill

BB
e-------------------10----10---------------------------------------
B----------------10----13----13-13----13-10----10------------------
G-10----------12----------------------------12----12-10-12-10----10
D----12-10-12-------------------------------------------------12---
A------------------------------------------------------------------
E------------------------------------------------------------------
Solo [this is pretty quick]

B R P Flange
e------------------------------------------------------------------
B----------------------------------------------10------------------
G----------------------------12-12-10-12-10-12----10---------------
D-12-10-12-10-------------12-------------------------10-10-12------
A-------------12-11-10---------------------------------------------
E----------------------13------------------------------------------


BRBRBRBRBP
e----------------------------------------------------10------------
B-------------------------12-12-12-10-12-12-12-10-13----13-10----10
G-------------------------------------------------------------12---
D--9--9--9--7--9--9--9--7------------------------------------------
A------------------------------------------------------------------
E------------------------------------------------------------------


BBR PHB B
e----------------------13-15-15-13-15-13----------10-12-13-13-16-17
B----------------------------------------10-12-13------------------
G-12-10----------10-12---------------------------------------------
D-------12-10-12---------------------------------------------------
A------------------------------------------------------------------
E------------------------------------------------------------------


B
e-20-20
B------
G------
D------
A------
E------






Bend(half step)            HB  
Bend(whole step)           B   
Pre-Bend                   PB  
Unison-Bend                U   
Release                    R   
Vibrato                    v   
Slide                      S   
Hammer-on                  H   
Palm Muting                P   
Trill                      g   
Natural Harmonic           PM..
Artificial Harmonic        ~   
Percussive Tone            NH..
     
Добавлено: 25.11.2013
Другие материалы по этой песне:
  • Аккорды и текст

Страница создана 25.11.2013
http://primanota.ru/guardian/shoeshine-johnny-chords.htm
Привет, Гость.
Предлагаем пройти революционный курс по гитаре.
Подарок от PrimaNota.Ru, забирай!