PrimaNota.ru - самый крупный в мире бесплатный архив песенных текстов, аккордов, табулатур и нот


Guardian - I Found Love - таба, видео

Регистрация Запомнить меня
Войти через:  Facebook Google Twitter Vk Yandex Mail.ru

Guardian - I Found Love - таба, видео

Печатать
Просмотров: 205
		   I found love
By: Guardian
Tabbed by Guardian

                        2x  hit it..                                    
E---||---0--0---||--0---||--0--0--0--0--0--0--0--0--0--0--0--0--0-------
B---||---0--0---||--0---||--0--0--0--0--0--0--0--0--0--0--0--0--0-------
G---||*--1--2--*||--4--*||--1--1--1--1--1--1--1--1--1--1--2--2--2-------
D---||*--2--4--*||--6--*||--2--2--2--4--2--4--2--2--2--2--4--4--4-------
A---||---2--4---||--7---||--2--2--2--2--2--2--2--2--2--2--4--4--4-------
E---||---0--0---||--0---||--0--0--0--0--0--0--0--0--0--0--0--0--0-------
                                                                        

         play this fill over last rythym pattern                        
E---||---------------------------||-------------------------------------
B---||---7h9--9--7-----7---------||-------------------------------------
G---||*-------------9-----9--9--*||-------------------------------------
D---||*-------------------------*||-------------------------------------
A---||---------------------------||-------------------------------------
E---||---------------------------||-------------------------------------
                                                                        

          verse E, A, E, A, E, A, C#min, A                              
E------------------------------------------------------||---------------
B------------------------------------------------------||---------------
G------------------------------------------------------||---------------
D------------------------------------------------------||---------------
A------------------------------------------------------||---------------
E------------------------------------------------------||---------------
                                                                        

    bridge B, A, E, B, A, B              chorus E, C#min, B, A x4       
E------------------------------------||---------------------------------
B------------------------------------||---------------------------------
G------------------------------------||---------------------------------
D------------------------------------||---------------------------------
A------------------------------------||---------------------------------
E------------------------------------||---------------------------------
                                                                        

                                                                        
E-----------------------------------------------------------------------
B-----------------------------------------------------------------------
G-----------------------------------------------------------------------
D-----------------------------------------------------------------------
A-----------------------------------------------------------------------
E-----------------------------------------------------------------------
                                                                        



========================================================================
==                       TABLATURE EXPLANATION                        ==
========================================================================

----------                ----------                ----t---
----5h8--- Hammeron       ----(8)--- Ghost          ----6--- Tap
----------                ---------- Note           --------
----5p8--- Pulloff        ----------                --------

----------                ----------                -----p--
----5/8--- Slide Up       -----x---- Dead           -----7-- Pop
----------                ---------- Note           --s-----
----5\8--- Slide Down     ----------                --5----- Slap 

----------                ||------|| Repeat         --------
----5~~~-- Vibrato        ||*----*||                ---5^--- Bend
----------                ||*----*||                --------
----------                ||------||                --------

----------                ----------                --------
-4:------- Time           ----------                --------
-4:------- Signature      ----------                --------
----------                ----------                --------

Rhythm:
  w = whole note            W = dotted whole
  h = half note             H = dotted half
  q = quarter note          Q = dotted quarter
  e = eighth note           E = dotted eighth
  s = sixteenth note        S = dotted sixteenth
  t = 32nd note             T = dotted 32nd
  x = 64th note             X = dotted 64th
  ^ = triplet

========================================================================
==      Created with TABESTRY Tab Creation Software for Windows       ==
==               For more info email gse@ocsystems.com                ==
========================================================================
Any questions coments additions?
Email me at Erick@vcfcs.org
P.S I have the solo but not with me at this time hopefully I can post it
soon but if someone really wants it email me and I will do it sooner.     
Добавлено: 26.07.2013
Другие материалы по этой песне:
  • Аккорды и текст

Страница создана 26.07.2013
http://primanota.ru/guardian/i-found-love-chords.htm
Привет, Гость.
Предлагаем пройти революционный курс по гитаре.
Подарок от PrimaNota.Ru, забирай!