PrimaNota.ru - самый крупный в мире бесплатный архив песенных текстов, аккордов, табулатур и нот


Guardian - Are We Feeling Comfortable Yet - таба, видео

Регистрация Запомнить меня
Войти через:  Facebook Google Twitter Vk Yandex Mail.ru

Guardian - Are We Feeling Comfortable Yet - таба, видео

Печатать
Просмотров: 98
Авторы текста: Steve Taylor
		   Title: Are We Getting Comfortable Yet?
 Band: Guardian
Album: Bottle Rocket

Transcribed by: Brian Hawdon  slinkman@softhome.net>  and
	          Scott Manley  theecho@softhome.net>
(Please notify us if you like this tab, or any corrections)

I'm surprised that this tab wasn't on the net already... I personally think that this is the best Guardian song I've heard... anyways there are a couple of ways to play this so try all of them..... 


Version One:

Guitar
Drop D tuning:
DADGBE

Bass
Drop D Also:
DADG

Intro - Delay Effect

---------
---------
---------
---------
---------
-0-0-0-0-    This part can me simulated without a delay pedal by playing the                                 		 notes twice.

Verse 1: (Bass)
---------------------------------
---------------------------------
---------------------------------
-0-0-3-0-0-3-0-0-6-6-6-5-5-5-3-2-

In the background of the first verse is that same effect but with the bass notes.

Riff 1:  Mainly Chorus & Verse> (Guitar) (Bass would play the same thing as verse)

---------------------------------    ---------------------------------
--------------------------------- or ---------------------------------
---------------------------------    ---------------------------------
---------------------------------    ---------------------------------
-0-0-3-0-0-3-0-0-6-6-6-5-5-5-3-2-    -0-0-3-0-0-3-0-0-6-6-6-5-5-5-4-3-
-0-0-3-0-0-3-0-0-6-6-6-5-5-5-3-2-    -0-0-3-0-0-3-0-0-6-6-6-5-5-5-4-3-
-0-0-3-0-0-3-0-0-6-6-6-5-5-5-3-2-    -0-0-3-0-0-3-0-0-6-6-6-5-5-5-4-3-

I think that both ways sound equally good you should choose which one you like the best.




Riff 2:

--------------------------------------------------------------------------------
--------------------------------------------------------------------------------
--------------------------------------------------------------------------------
-12-12-12-7-7-7-10-10-10-5-5-5-7-7-3-3-12-12-12-7-7-7-10-10-10-5-5-5-7-10-10-10-
-12-12-12-7-7-7-10-10-10-5-5-5-7-7-3-3-12-12-12-7-7-7-10-10-10-5-5-5-7-10-10-10-
-12-12-12-7-7-7-10-10-10-5-5-5-7-7-3-3-12-12-12-7-7-7-10-10-10-5-5-5-7-10-10-10-

Riff 3:

-------
-------
-------
-2-0-7-
-2-0-7-
-2-0-7-
For this part you will have to decide how long to hold each chord, I suggest listening to the CD to get it right.

Riff 4:

---------------------------------------
---------------------------------------
---------------------------------------
-5-5-8-5-5-8-5-5-11-11-11-10-10-10-8-7-
-5-5-8-5-5-8-5-5-11-11-11-10-10-10-8-7-
-5-5-8-5-5-8-5-5-11-11-11-10-10-10-8-7-

This is basically Riff 1, but moved up a few keys, im not sure where this comes in but it does somewhere.

Outro:

-------------------------------|-------------
-------------------------------|-------------
-------------------------------|-------------
-2-2-2-2-2-9-7-2-2-2-2-9-7-9-7-|-0-0-0-0-7-5-
-2-2-2-2-2-9-7-2-2-2-2-9-7-9-7-|-0-0-0-0-7-5-
-2-2-2-2-2-9-7-2-2-2-2-9-7-9-7-|-0-0-0-0-7-5-

Reapeat this 2x then play the second part ^


Version 2:

Version 2, is really the same as Version 1, but to match the exact key of the song im sure that every thing is moved up to the key of D# which is one fret up. (e.g. Version 1: -0-0-3-0-0-3-0-0-6-6-6-5-5-5-3-2-
	    Version 2: -1-1-4-1-1-4-1-1-7-7-7-6-6-6-4-3-)
I think that Version 2 is the correct way, but version one still sounds good and easier, you should decide for yourself... one of these days ill have the standard tuning version... if you want it email me at theecho@softhome.net

Well that's it have fun!  If anyone know the tab for Leaderdogs: Yellow and Black attack, PLZ EMAIL ME!!! 

Jesus Loves You...
     
Добавлено: 15.06.2013
Другие материалы по этой песне:
  • Аккорды и текст

Страница создана 15.06.2013
http://primanota.ru/guardian/are-we-feeling-comfortable-yet-chords.htm
Привет, Гость.
Предлагаем пройти революционный курс по гитаре.
Подарок от PrimaNota.Ru, забирай!