PrimaNota.ru - самый крупный в мире бесплатный архив песенных текстов, аккордов, табулатур и нот


Guantanamo Baywatch - Walking In The Dark - бас-таба, видео

Регистрация Запомнить меня
Войти через:  Facebook Google Twitter Vk Yandex Mail.ru

Guantanamo Baywatch - Walking In The Dark - бас-таба, видео

Печатать
Просмотров: 18
-------------------------------------------------------------------------------
                WALKING IN THE DARK - Guantanamo Baywatch
-------------------------------------------------------------------------------
Tabbed by: Alec58 and Mattywag
E-mail: 

Tuning: Standard

G|---------------------------------------------------------------------------|
D|------------------------------2-2-2-2-2-2-------------0--0-----------------|
A|----------3--5----2-2-2-2-2-2-------------2-2-2-2-2-2------2-0-------------|
E|----3--0-------------------------------------------------------------------|

G|---------------------------------------------------------------------------|
D|-------------------------2-4-2-1-1-1-1-1-1-0-0-0-0-------------------------|
A|-------1-------------------------------------------2-0---------------------|
E|-3--0-----0--0-0-0-0-0-0---------------------------------------------------|

G|---------------------------------------------------------------------------|
D|-------0---0-1--------0---0-1--------0---0-1--------0---0-1-1-1-1-1-1------|
A|---------2-----1--------2-----1--------2-----1--------2--------------------|
E|-3-3-3--------------3--------------3--------------3------------------------|

G|---------------------------------------------------------------------------|
D|---------------------------------------------------------------------------|
A|-------------------------------3--3--3--3-3-3------------------------------|
E|-0--0--0--0-0-0-3--3--3--3-3-3----------------3--3--3--3-3-2---------------|

G|---------------------------------------------------------------------------|
D|----------------------------------------------1-1-1-1-3-1-0-0-0-0----------|
A|-------------------------------5--5--5--5-5-5---------------------2-0------|
E|-0--0--0--0-0-2-3--3--3--3-3-3---------------------------------------------|

G|---------------------------------------------------------------------------|
D|-------------------------------------2-2-2-2-2-2-------------0--0----------|
A|------------3----5---5-5-2-2-2-2-2-2-------------2-2-2-2-2-2------2-0------|
E|-3---3-0-------------------------------------------------------------------|

G|---------------------------------------------------------------------------|
D|-------------------------2-4-2-1-1-1-1-1-1-0-0-0-0-------------------------|
A|-------1-------------------------------------------2-0---------------------|
E|-3--0-----0--0-0-0-0-0-0---------------------------------------------------|

G|---------------------------------------------------------------------------|
D|---0---0-1--------0---0-1--------0---0-1--------0---0-1--------------------|
A|-----2-----1--------2-----1--------2-----1--------2-----1------------------|
E|-3--------------3--------------3--------------3----------------------------|


G|---------------------------------------------------------------------------|
D|---0---0-1--------0---0-1--------0---0-1--------0---0-1-1-1-1-1-1----------|
A|-----2-----1--------2-----1--------2-----1--------2------------------------|
E|-3--------------3--------------3--------------3----------------------------|

G|---------------------------------------------------------------------------|
D|---0-0---0-1----------0-0---0-1----------0-0---0-1------0-0---0-1-1-1-0----|
A|-------2-----1-1-1--------2-----1-1-1--------2-----1--------2--------------|
E|-3------------------3------------------3--------------3--------------------|

G|---------------------------------------------------------------------------|
D|---0-0---0-1------0-0---0-1-3-1-0----0-0---0-1------0-0---0-1-3-1-0--------|
A|-------2-----1--------2------------------2-----1--------2------------------|
E|-3--------------3------------------3--------------3------------------------|

G|---------------------------------------------------------------------------|
D|---0-0---0-1------0-0---0-1-3-1-0----0-0---0-1------0-0---0-1-3-1-0--------|
A|-------2-----1--------2------------------2-----1--------2------------------|
E|-3--------------3------------------3--------------3------------------------|

G|---------------------------------------------------------------------------|
D|---0-0---0-1------0-0---0-1-3-0-1------------------------------------------|
A|-------2-----1--------2----------------------------------------------------|
E|-3--------------3----------------------------------------------------------|


| /  slide up
| \  slide down
| h  hammer-on
| p  pull-off
| ~  vibrato
| +  harmonic
| x  Mute note
===============================================================================
Добавлено: 29.05.2016
Другие материалы по этой песне:
  • Аккорды и текст

Страница создана 29.05.2016
http://primanota.ru/guantanamo-baywatch/walking-in-dark-chords.htm
Привет, Гость.
Предлагаем пройти революционный курс по гитаре.
Подарок от PrimaNota.Ru, забирай!