PrimaNota.ru - самый крупный в мире бесплатный архив песенных текстов, аккордов, табулатур и нот


Gruntruck - Flesh Fever - таба, видео

Регистрация Запомнить меня
Войти через:  Facebook Google Twitter Vk Yandex Mail.ru

Gruntruck - Flesh Fever - таба, видео

Печатать
Просмотров: 125
-------------------------------------------------------------------------------
                            FLESH FEVER - Gruntruck
-------------------------------------------------------------------------------

Tabbed by: brian_s
Email: branimir.sremec@kc.t-com.hr


INTRO:
e-------------------------------------------------|
B-------------------------------------------------|
G-------------------------------------------------|  2x
D---------------------------------------------3---|
A---5—-5--5--6--5----4-------5--5--5--6--5--------|
E---3--3--3--4--3------------3--3--3--4--3--------|

Pick scrape

e-------------------------------------------------|
B-------------------------------------------------|
G-------------------------------------------------|  2x
D--------------------6----------------------------|
A---5—-5--5--6--5----4-------5--5--5--6--5----3---|
E---3--3--3--4--3------------3--3--3--4--3----1---|

Pick scrape

VERSE 1:
e------------------------------------------------------------|
B------------------------------------------------------------|
G------------------------------------------------------------|  4x
D--------------------------6---------------------------------|
A---5-5-5-5-5-5-5-5-5-5----4------5-5-5-5-5-5-5-5-5-5----3---|
E---3-3-3-3-3-3-3-3-3-3-----------3-3-3-3-3-3-3-3-3-3----1---|


e------------------------------|
B------------------------------|
G------------------------------|  8x
D------------------------------|
A--------------------------4---|
E---3-3-3-3-4---3-3-3-4--3-----|


INTERLUDE:
e-----------------------------------------|
B-----------------------------------------|
G-----------------------------------------|  2x
D---------5-----5-------------------------| 
A------4-----------4----------------------|
E---3-----------------3------4--4--4--4---|


e-------------------------------------------------|
B-------------------------------------------------|
G-------------------------------------------------|  2x
D---------------------------------------------3---|  
A---5—-5--5--6--5----4-------5--5--5--6--5--------|
E---3--3--3--4--3------------3--3--3--4--3--------|

Pick scrape


VERSE 2:
e------------------------------------------------------------|
B------------------------------------------------------------|
G------------------------------------------------------------|  4x
D--------------------------6---------------------------------|
A---5-5-5-5-5-5-5-5-5-5----4------5-5-5-5-5-5-5-5-5-5----3---|
E---3-3-3-3-3-3-3-3-3-3-----------3-3-3-3-3-3-3-3-3-3----1---|


BRIDGE:
e------------------------------|
B------------------------------|   
G------------------------------|  16x
D------------------------------|
A--------------------------4---|
E---3-3-3-3-4---3-3-3-4--3-----|


INTERLUDE:
e-----------------------------------------|
B-----------------------------------------|
G-----------------------------------------|  2x
D---------5-----5-------------------------|
A------4-----------4----------------------|
E---3-----------------3------4--4--4--4---|


VERSE 3:
e------------------------------------------------------------|
B------------------------------------------------------------|
G------------------------------------------------------------|  4x
D--------------------------6---------------------------------|
A---5-5-5-5-5-5-5-5-5-5----4------5-5-5-5-5-5-5-5-5-5----3---|
E---3-3-3-3-3-3-3-3-3-3-----------3-3-3-3-3-3-3-3-3-3----1---|


OUTRO:
e------------------------------|
B------------------------------| 
G------------------------------|  12x
D------------------------------|
A--------------------------4---|
E---3-3-3-3-4---3-3-3-4--3-----|
Добавлено: 14.03.2012
Другие материалы по этой песне:
  • Аккорды и текст

Страница создана 14.03.2012
http://primanota.ru/gruntruck/flesh-fever-chords.htm
Привет, Гость.
Предлагаем пройти революционный курс по гитаре.
Подарок от PrimaNota.Ru, забирай!