PrimaNota.ru - самый крупный в мире бесплатный архив песенных текстов, аккордов, табулатур и нот


Gruntruck - Body Farm - таба, видео

Регистрация Запомнить меня
Войти через:  Facebook Google Twitter Vk Yandex Mail.ru

Gruntruck - Body Farm - таба, видео

Печатать
Просмотров: 145
Уроки эстрадного вокала в Санкт-Петербурге
Artista: Gruntruck
Pista:   Body Farm
Album:   Push

Drop D (D A D G B e)

comments: grunge_09@rocketmail.com


intro:

e)-------------------------|
B)-------------------------|
G)-------------------------|
D)-------------------------|
A)---5---------------------|
D)-5------7------7/6---7/6-|

verse:

e)-------------------------|
B)-------------------------|
G)-------------------------|
D)-3--112-3--234-6---------|
A)-3--112-3--234-6---------|
D)-3--112-3--234-6---------|

Order:

intro X 12
verse X 2
intro X 12
verse X 4
intro X 8 (During the solo)
intro X 20
verse X 8
intro X 1
Добавлено: 13.07.2012
Другие материалы по этой песне:
  • Аккорды и текст

Страница создана 13.07.2012
http://primanota.ru/gruntruck/body-farm-chords.htm
Привет, Гость.
Предлагаем пройти революционный курс по гитаре.
Подарок от PrimaNota.Ru, забирай!