PrimaNota.ru - самый крупный в мире бесплатный архив песенных текстов, аккордов, табулатур и нот


Grumby Jonas Band - I Cant Sing - аккорды и текст, видео

Регистрация Запомнить меня
Войти через:  Facebook Google Twitter Vk Yandex Mail.ru

Grumby Jonas Band - I Cant Sing - аккорды и текст, видео

Печатать
Просмотров: 91
Уроки эстрадного вокала в Санкт-Петербурге
I Cant Sing
Grumby Jonas Band
I Can't Sing by The Jonas GrGrumbyand
>From the album "Fatty Tuna"

transcribed by Jack (mamalvadanunoahoo.com)





I hope I got the rhythm right - this is my first tab. 



   E                       B         E                
      B

   |       |       |       |         |       |       |
      |    
E|-0-----0-0---0---0-0-0---0-0-0---|-0-----0-0---0---0-0-0---0-0-0---|
B|-0-----0-0---0---0-0-0---7-7-7---|-0-----0-0---0---0-0-0---7-7-7---|
G|-1-----1-1---1---1-1-1---8-8-8---|-1-----1-1---1---1-1-1---8-8-8---| 2X   
D|-2-----2-2---2---2-2-2---9-9-9---|-2-----2-2---2---2-2-2---9-9-9---|
A|-2-----2-2---2---2-2-2---9-9-9---|-2-----2-2---2---2-2-2---9-9-9---|
E|-0-----0-0---0---0-0-0---7-7-7---|-0-----0-0---0---0-0-0---7-7-7---|




   E                       B         E                
      B

   |       |       |       |         |       |       |
      |    
E|-0-----0-0---0---0-0-0---0-0-0---|-0-----0-0---0---0-0-0---0-0-0---|
B|-0-----0-0---0---0-0-0---7-7-7---|-0-----0-0---0---0-0-0---7-7-7---|
G|-1-----1-1---1---1-1-1---8-8-8---|-1-----1-1---1---1-1-1---8-8-8---| 2X   
D|-2-----2-2---2---2-2-2---9-9-9---|-2-----2-2---2---2-2-2---9-9-9---|
A|-2-----2-2---2---2-2-2---9-9-9---|-2-----2-2---2---2-2-2---9-9-9---|
E|-0-----0-0---0---0-0-0---7-7-7---|-0-----0-0---0---0-0-0---7-7-7---|
  
  I   just can't sing at all..........




 -This measure in 3/4 time->

   A              C#m      F#

   |       |       |       | |     |       |       |  
    |
E|-0----0--0--0----0---0---|-0---0-0-0---0-0-0---0-0-0-----|
B|-5----5--5--5----5---5---|-2---2-2-2---2-2-2---2-2-2-----|
G|-6----6--6--6----6---6---|-3---3-3-3---3-3-3---3-3-3-----| 2X 
D|-7----7--7--7----6---6---|-4---4-4-4---4-4-4---4-4-4-----|
A|-7----7--7--7----4---4---|-4---4-4-4---4-4-4---4-4-4-----|
E|-5----5--5--5----x---x---|-2---2-2-2---2-2-2---2-2-2-----|


   That is why I usually don't .........





   B                              A
  
   |       |       |       |      |       |       |   
   |
E|-0-----0-0-0---0-0-0---0-0-0--|-0-----0-0-0---0-0-0---0-0-0----|
B|-7-----7-7-7---7-7-7---7-7-7--|-5-----5-5-5---5-5-5---5-5-5----|
G|-8-----8-8-8---8-8-8---8-8-8--|-6-----6-6-6---6-6-6---6-6-6----| 2X 
D|-9-----9-9-9---9-9-9---9-9-9--|-7-----7-7-7---7-7-7---7-7-7----|
A|-9-----9-9-9---9-9-9---9-9-9--|-7-----7-7-7---7-7-7---7-7-7----|
E|-7-----7-7-7---7-7-7---7-7-7--|-5-----0-0-0---0-0-0---0-0-0----|

  But I do it anyway.....






Then the whole thing repeats.  The guitar solo sounds
like sort of a 
funky blues pattern with a flange or something.  The
part before the 
solo goes from B to A to:




   G                              F
  
   |       |       |       |      |       |       |   
   |
E|-0-----0-0-0---0-0-0---0-0-0--|-0-----0-0-0---0-0-0---0-0-0----|
B|-3-----3-3-3---3-3-3---3-3-3--|-1-----1-1-1---1-1-1---1-1-1----|
G|-4-----4-4-4---4-4-4---4-4-4--|-2-----2-2-2---2-2-2---2-2-2----|
D|-5-----5-5-5---5-5-5---5-5-5--|-3-----3-3-3---3-3-3---3-3-3----|
A|-5-----5-5-5---5-5-5---5-5-5--|-3-----3-3-3---3-3-3---3-3-3----|
E|-3-----3-3-3---3-3-3---3-3-3--|-1-----1-1-1---1-1-1---1-1-1----|

  Oh, try try as I might.......




This is also the same music on the hidden track where
Jonas beats up some
kid in the studio.

__________________________________
     
Добавлено: 17.11.2013
Другие материалы по этой песне:
  • Аккорды и текст

Страница создана 17.11.2013
http://primanota.ru/grumby-jonas-band/i-cant-sing-chords.htm
Привет, Гость.
Предлагаем пройти революционный курс по гитаре.
Подарок от PrimaNota.Ru, забирай!