PrimaNota.ru - самый крупный в мире бесплатный архив песенных текстов, аккордов, табулатур и нот


Gruff Rhys - Whale Trail - таба, видео

Регистрация Запомнить меня
Войти через:  Facebook Google Twitter Vk Yandex Mail.ru

Gruff Rhys - Whale Trail - таба, видео

Печатать
Просмотров: 145
-------------------------------------------------------------
                Whale Trail - Gruff Rhys
-------------------------------------------------------------
Tabbed by: Kevin L.
E-mail: allsheeps@gmail.com
Date: January 30, 2013
-------------------------------------------------------------

From the iOS/Android game Whale Trail Frenzy
Get those bubbles and have fun with it!

Song link for the lazy
http://www.youtube.com/watch?v=wwr6c2Ws1yI

=============================================================
Standard Tuning
Guitar 1
Keyboard/Bells 1
=======================Guitar 1==============================

Intro/Verse 1 (Acoustic, Open Chords)

   A   C#m    F#m    E     D     Dm    A     E

e|--5-----4-----2-----0-----5-----5-----5-----0----|
B|--5-----5-----2-----0-----7-----6-----5-----0----|
G|--6-----6-----2-----1-----7-----7-----6-----1----|
D|--7-----6-----4-----2-----7-----7-----7-----2----|
A|--7-----4-----4-----2-----5-----5-----7-----2----|
E|--5-----x-----2-----0-----x-----x-----5-----0----|



Verse 2 (Distortion Electric)
(See song structure for Palm Mute sections)

e|-----------------------------------|
B|-----------------------------------|
G|------6-----------7---4------------|
D|--7---6---4---2---7---4---7---2----|
A|--7---4---4---2---5---2---7---2----|
E|--5-------2---0-----------5---0----|



=======================Keyboard/Bells 1=========================

Intro 

e|----0-2-4-0---0------0-2-4-0---------------------------------|
B|--2---------2------2---------2-0-----2-0----0-2-h5-p2-3-2-0--|
G|---------------------------------2-2----2-2------------------|
D|-------------------------------------------------------------|
A|-------------------------------------------------------------|
E|-------------------------------------------------------------|

Verse 1 

e|---------------0-2---2-4-0-----------------------------------|
B|-------0-2---2---------------0-2-----0-2------0-2---3-2-0----|
G|-2---2---------------------------2------2----2---------------|
D|-------------------------------------------------------------|
A|-------------------------------------------------------------|
E|-------------------------------------------------------------|

================================================================
Song Structure

Intro
Verse 1
Verse 1
Verse 1
Verse 2 (Palm Mute)
Verse 2 (Palm Mute)
Verse 2 (Palm Mute)
Verse 2 (Palm Mute)
Verse 2
Verse 2
Verse 2 (Palm Mute)
Verse 2 (Palm Mute)
Verse 1
Verse 1 (Outro)
=============================================================
Lyrics

i'm on a whale trail
and I won't fail whale
just set sail
with heavy tail, to the bottom of the clouds
and when i set sail
oh, i wont tell tales
without fail with abigail
to the toppermost of the sky

there aint no riots in the sky
just a riot of color
that will last forever

I can see my house from here

summer in the winter time
colors through the clouds
thunder through the atmosphere
tear run aground
summer in the winter time
colors trail behind
thunder throutgh the atmoshpere
lighting melts my mind

just tax the rich
and give to causes that will
cause the pain to cease
and all the troubles will
evaporate with love

no armored cars,
just time, and stars,
and universal suffrage,
for everyone forever,
never turn away

we could create so much together
we could get to mars
and back again for snacks and video games

this is a motivational song

lets all get along
dont take so long take over

summer in the winter time
color through the clouds 
thunder through the atmosphere
tears run aground
summer in the wintertime
colors trail behind
thunder through the atmosphere
lighting melts my mind

Ive got nothing left to lose
ive got everything to gain again
sinve you regained the soverignty of the air

Ive got nothing left to lose
ive got everything to gain again
sinve you regained the soverignty of the air...


************************************

| /   slide up
| \   slide down
| h   hammer-on
| p   pull-off
| ~   vibrato
| +   harmonic
| x   Mute note
| b   Bend
| pb  Pre-bend
| br  Bend release
| pbr Pre-bend release
| brb Bend release bend

************************************
Добавлено: 17.10.2013
Другие материалы по этой песне:
  • Аккорды и текст

Страница создана 17.10.2013
http://primanota.ru/gruff-rhys/whale-trail-chords.htm
Привет, Гость.
Предлагаем пройти революционный курс по гитаре.
Подарок от PrimaNota.Ru, забирай!