PrimaNota.ru - самый крупный в мире бесплатный архив песенных текстов, аккордов, табулатур и нот


Gruesome - Closed Casket - таба, видео

Регистрация Запомнить меня
Войти через:  Facebook Google Twitter Vk Yandex Mail.ru

Gruesome - Closed Casket - таба, видео

Печатать
Просмотров: 38
D Standard Tuning. Low to High (D,G,C,F,A,d)

Tabbed by Alex Kolomvotos.

I do not own this.

Slide Up = /
Slide Down = \
Hammer On = h
Pull Off = p
Tap = t
Release Bend = r
Bend = ^
Vibrato = ~
Let Ring = ()
Divebomb = []
Palm Mute = .
Pinch Harmonic = *

Intro Riff A x1
|Guitar 1
|------------------------------|------------------------------|
|------------------------------|------------------------------|
|------------------------------|------------------------------|
|------------------------------|------------------------------|
|------------------------------|--------------------5------3--|
|------------------------------|---------------0000-3-0000-1--|
|                                              ....   ....
|
|Guitar 2
|------------------------------|------------------------------|
|------------------------------|------------------------------|
|------------------------------|------------------------------|
|------------------------------|------------------------------|
|-------3-3/4\3------5------8--|-------3-3/4\3------5------3--|
|--0000-1-1/2\1-0000-3-0000-6--|--0000-1-1/2\1-0000-3-0000-1--|
   ....         ....   ....       ....         ....   ....

Verse Riff A x2
|Guitar 1
|------------------------------|------------------------------|
|------------------------------|------------------------------|
|------------------------------|------------------------------|
|------------------------------|------------------------------|
|-------3-3/4\3------5------8--|-------3-3/4\3------5------3--|
|--0000-1-1/2\1-0000-3-0000-6--|--0000-1-1/2\1-0000-3-0000-1--|
|  ....         ....   ....       ....         ....   ....
|
|Guitar 2
|------------------------------|------------------------------|
|------------------------------|------------------------------|
|------------------------------|------------------------------|
|------------------------------|------------------------------|
|-------3-3/4\3------5------8--|-------3-3/4\3------5------3--|
|--0000-1-1/2\1-0000-3-0000-6--|--0000-1-1/2\1-0000-3-0000-1--|
   ....         ....   ....       ....         ....   ....

|Verse Riff B1 x1
|Guitar 1
|-------------------------------------|-------------------------------------|
|-------------------------------------|-------------------------------------|
|-------------------------------------|-------------------------------------|
|-------------------------------------|-------------------------------------|
|----------44445555---------33334444--|----------77778888---------66667777--|
|--22222222---------11111111----------|--55555555---------44444444----------|
|  ........         ........             ........         ........
|
|Guitar 2
|-------------------------------------|-------------------------------------|
|-------------------------------------|-------------------------------------|
|-------------------------------------|-------------------------------------|
|-------------------------------------|-------------------------------------|
|----------44445555---------33334444--|----------77778888---------66667777--|
|--22222222---------11111111----------|--55555555---------44444444----------|
|  ........         ........             ........         ........

|Verse Riff B2 x1
|Guitar 1
|-------------------------------------|-----------------------------------------|
|-------------------------------------|-----------------------------------------|
|-------------------------------------|-----------------------------------------|
|----------66667777---------55556666--|----------999910101010---------88889999--|
|--44444444---------33333333----------|--77777777-------------66666666----------|
|-------------------------------------|-----------------------------------------|
|  ........         ........             ........             ........
|
|Guitar 2
|-------------------------------------|----------------------------------------|
|-------------------------------------|----------------------------------------|
|-------------------------------------|----------------------------------------|
|-------------------------------------|----------------------------------------|
|----------44445555---------33334444--|----------77778888------------66667777--|
|--22222222---------11111111----------|--55555555------------44444444----------|
|  ........         ........             ........            ........

Verse Riff A x2
|Guitar 1
|------------------------------|------------------------------|
|------------------------------|------------------------------|
|------------------------------|------------------------------|
|------------------------------|------------------------------|
|-------3-3/4\3------5------8--|-------3-3/4\3------5------3--|
|--0000-1-1/2\1-0000-3-0000-6--|--0000-1-1/2\1-0000-3-0000-1--|
|  ....         ....   ....       ....         ....   ....
|
|Guitar 2
|------------------------------|------------------------------|
|------------------------------|------------------------------|
|------------------------------|------------------------------|
|------------------------------|------------------------------|
|-------3-3/4\3------5------8--|-------3-3/4\3------5------3--|
|--0000-1-1/2\1-0000-3-0000-6--|--0000-1-1/2\1-0000-3-0000-1--|
   ....         ....   ....       ....         ....   ....

|Verse Riff B1 x1
|Guitar 1
|-------------------------------------|-------------------------------------|
|-------------------------------------|-------------------------------------|
|-------------------------------------|-------------------------------------|
|-------------------------------------|-------------------------------------|
|----------44445555---------33334444--|----------77778888---------66667777--|
|--22222222---------11111111----------|--55555555---------44444444----------|
|  ........         ........             ........         ........
|
|Guitar 2
|-------------------------------------|-------------------------------------|
|-------------------------------------|-------------------------------------|
|-------------------------------------|-------------------------------------|
|-------------------------------------|-------------------------------------|
|----------44445555---------33334444--|----------77778888---------66667777--|
|--22222222---------11111111----------|--55555555---------44444444----------|
|  ........         ........             ........         ........

|Verse Riff B2 x1
|Guitar 1
|-------------------------------------|-----------------------------------------|
|-------------------------------------|-----------------------------------------|
|-------------------------------------|-----------------------------------------|
|----------66667777---------55556666--|----------999910101010---------88889999--|
|--44444444---------33333333----------|--77777777-------------66666666----------|
|-------------------------------------|-----------------------------------------|
|  ........         ........             ........             ........
|
|Guitar 2
|-------------------------------------|----------------------------------------|
|-------------------------------------|----------------------------------------|
|-------------------------------------|----------------------------------------|
|-------------------------------------|----------------------------------------|
|----------44445555---------33334444--|----------77778888------------66667777--|
|--22222222---------11111111----------|--55555555------------44444444----------|
|  ........         ........             ........            ........

Bridge Riff A1 x1
|Guitar 1
|-------------------------------------|------------------------------------|
|-------------------------------------|------------------------------------|
|--5----------------------------------|------------------55554444----------|
|--5----------------------------------|------66665555------------55556666--|
|--3----------------------------------|--3333--------6666------------------|
|-------------------------------------|------------------------------------|
|                                        ....        ....
|
|Guitar 2
|-------------------------------------|------------------------------------|
|-------------------------------------|------------------------------------|
|-------------------------------------|------------------55554444----------|
|-------66665555----55554444----------|------66665555------------55556666--|
|--3333---------6666--------33334444--|--3333--------6666------------------|
|-------------------------------------|------------------------------------|
   ....         ....        ....         ....        ....        

Bridge Riff A2 x1
|Guitar 1
|--------------------------------|-----------------------------|
|--------------------------------|-----------------------------|
|-------8-7------7-6-------------|-------8-7----------7777-8~--|
|-------6-5------5-4------6-(6)--|-------6-5------5-4----------|
|--3333-----3333-----3333-4-(4)--|--3333-----3333--------------|
|--------------------------------|-----------------------------|
|  ....     ....     ....           ....     ....          
|
|Guitar 2
|--------------------------------|-----------------------------|
|--------------------------------|-----------------------------|
|-------8-7------7-6-------------|-------8-7-------------------|
|-------6-5------5-4------6-(6)--|-------6-5------5-4-5555-6~--|
|--3333-----3333-----3333-4-(4)--|--3333-----3333--------------|
|--------------------------------|-----------------------------|
|  ....     ....     ....           ....     ....          

Bridge Riff B x2
|Guitar 1
|-------------------|-------------------|
|-------------------|-------------------|
|-------------------|-------------------|
|--------6-5--------|--------6-5--------|
|----7-6-----7-6-7--|----6-5-----6-5-6--|
|--4----------------|--3----------------|
|
|
|Guitar 2
|-------------------|-------------------|
|-------------------|-------------------|
|-------------------|-------------------|
|-------------------|-------------------|
|--6-(6)-------(6)--|--5-(5)-------(5)--|
|--4-(4)-------(4)--|--3-(3)-------(3)--|

Verse Riff C1 x1
|Guitar 1
|----------------------------------|----------------------------------|
|----------------------------------|----------------------------------|
|----------------------------------|----------------------------------|
|------------66665555--------------|------------66665555--------------|
|----77776666--------777766667777--|----66665555--------666655556666--|
|--44------------------------------|--33------------------------------|
|
|
|Guitar 2
|----------------------------------|----------------------------------|
|----------------------------------|----------------------------------|
|----------------------------------|----------------------------------|
|------------66665555--------------|------------66665555--------------|
|----77776666--------777766667777--|----66665555--------666655556666--|
|--44------------------------------|--33------------------------------|

Verse Riff C2 x1
|Guitar 1
|----------------------------------|---------------------------|
|----------------------------------|---------------------------|
|----------------------------------|---------------------------|
|------------66665555--------------|------------66665555-------|
|----77776666--------777766667777--|----66665555---------6-5~--|
|--44------------------------------|--33-----------------------|
|                                                          *
|
|Guitar 2
|----------------------------------|---------------------------|
|----------------------------------|---------------------------|
|----------------------------------|---------------------------|
|------------66665555--------------|------------66665555-------|
|----77776666--------777766667777--|----66665555---------6-5~--|
|--44------------------------------|--33-----------------------|
                                                           *
Chorus Riff A1 x2
|Guitar 1
|----------------------------------|----------------------------------|
|----------------------------------|----------------------------------|
|----------------------------------|----------------------------------|
|----------------------------------|----------------------------------|
|----------------------3----4------|----------------------4----3------|
|--22222222111111111111-1111-1111--|--22222222111111111111-1111-1111--|
|  .................... .... ....     .................... .... ....
|
|Guitar 2
|----------------------------------|----------------------------------|
|----------------------------------|----------------------------------|
|----------------------------------|----------------------------------|
|----------------------------------|----------------------------------|
|----------------------3----4------|----------------------4----3------|
|--22222222111111111111-1111-1111--|--22222222111111111111-1111-1111--|
   .................... .... ....     .................... .... ....

Chorus Riff A2 x2
|Guitar 1
|----------------------------------|----------------------------------|
|----------------------------------|----------------------------------|
|----------------------------------|----------------------------------|
|----------------------3----4------|----------------------4----3------|
|----------------------------------|----------------------------------|
|--22222222111111111111-1111-1111--|--22222222111111111111-1111-1111--|
   .................... .... ....     .................... .... ....
|
|
|Guitar 2
|----------------------------------|----------------------------------|
|----------------------------------|----------------------------------|
|----------------------------------|----------------------------------|
|----------------------------------|----------------------------------|
|----------------------3----4------|----------------------4----3------|
|--22222222111111111111-1111-1111--|--22222222111111111111-1111-1111--|
   .................... .... ....     .................... .... ....

Bridge Riff C1 x1
|Guitar 1
|-----------------------|
|-----------------------|
|-----------------------|
|-----------------------|
|--3-2-------------3-2--|
|------------------1-0--|
|
|
|Guitar 2
|-----------------------|
|-----------------------|
|-----------------------|
|-----------------------|
|--3-2-2-1-----3-2-3-2--|
|----------2-1-----1-0--|

Bridge Riff C2 x2
|Guitar 1
|-------------------|
|-------------------|
|-------------------|
|-------------------|
|--2-1-----3-2-3-2--|
|------2-1-----1-0--|
|
|
|Guitar 2
|-------------------|
|-------------------|
|-------------------|
|-------------------|
|--2-1-----3-2-3-2--|
|------2-1-----1-0--|

Bridge Riff C3 x2
|Guitar 1
|-------------------|
|-------------------|
|-------------------|
|--4-3-----5-4------|
|------4-3-----3-2--|
|--------------1-0--|
|
|
|Guitar 2
|-------------------|
|-------------------|
|-------------------|
|-------------------|
|--2-1-----3-2-3-2--|
|------2-1-----1-0--|


Solo Rhythm
|Guitar 2
|-------------------------------------------|-------------------------------------------|
|-------------------------------------------|-------------------------------------------|
|-------------------------------------------|-------------------------------------------|
|-------------------------------------------|-------------------------------------------|
|--2-(2)-2-2-4-5-(5)-4-3-(3)-3-3-5-6-(6)-3--|--2-(2)-2-2-4-5-(5)-4-3-(3)-3-3-5-6-(6)-3--|
|--0-(0)-0-0-2-3-(3)-2-1-(1)-1-1-3-4-(4)-1--|--0-(0)-0-0-2-3-(3)-2-1-(1)-1-1-3-4-(4)-1--|
         . .                 . .                     . .                 . .

This solo is pretty hard to tab out, so don't hate me lol.
To save space,I didn't put the exact number of times to pick a note.
Just go crazy on it and change when you have to.

Solo Figure 1
|Guitar 1
|--So, there is a divebomb -------------------|------------------------------------------------------------|
|--here. Hit a natural harmonic just---17-18--|--21~-171817----------------------171817--------------------|
|--over your neck pick up.--------------------|------------17191719--161719171617------191716------191716--|
|--Try to find it just around-----------------|--Some fast---------19------------------------191715--------|
|--there. Play it on d, hold it, -------------|--diddlez here----------------------------------------------|
|--and then play it on A then d.--------------|------------------------------------------------------------|
|
|--------------------------------------------------------|--------------------------------------|
|------------17192019---------20191719------2019171920---|------------14161714--------13141614--|
|--1917151719--------151719715--------151719-------------|--1415171514--------14151715----------|
|--------------------------------------------------------|--------------------------------------|
|--------------------------------------------------------|--------------------------------------|
|--------------------------------------------------------|--------------------------------------|

I'm trying, dammit.

Solo Figure 2
|Guitar 1
|---------12----------------------101213------------11131113~--|
|--9101210--1091012--------1012109------111311131113-----------|
|------------------10121310------------------------------------|
|--------------------------------------------------------------|
|--------------------------------------------------------------|
|--------------------------------------------------------------|          

This isn't easy.

Solo Figure 3
|Guitar 1
|--------------------------------------------------------------|
|--891091098---------------------------------------------------|
|-----------91012910--------------------------------------14~--|
|--------------------9101291012---------------9101210910912----|
|----------------------------- 1012131213101213----------------|
|--------------------------------------------------------------|

Sure.

Solo Figure 4
|Guitar 1
|-------18p15------15-17-20-18-17-19~--|
|-----16-----16------------------------|
|--/15---------15----------------------|
|--------------------------------------|
|--------------------------------------|
|--------------------------------------|


That probably wasn't even close. 
Just solo in the general area and key, and your good.
Anyways. 

Verse Riff A x2
|Guitar 1
|------------------------------|------------------------------|
|------------------------------|------------------------------|
|------------------------------|------------------------------|
|------------------------------|------------------------------|
|-------3-3/4\3------5------8--|-------3-3/4\3------5------3--|
|--0000-1-1/2\1-0000-3-0000-6--|--0000-1-1/2\1-0000-3-0000-1--|
|  ....         ....   ....       ....         ....   ....
|
|Guitar 2
|------------------------------|------------------------------|
|------------------------------|------------------------------|
|------------------------------|------------------------------|
|------------------------------|------------------------------|
|-------3-3/4\3------5------8--|-------3-3/4\3------5------3--|
|--0000-1-1/2\1-0000-3-0000-6--|--0000-1-1/2\1-0000-3-0000-1--|
   ....         ....   ....       ....         ....   ....

|Verse Riff B1 x1
|Guitar 1
|-------------------------------------|-------------------------------------|
|-------------------------------------|-------------------------------------|
|-------------------------------------|-------------------------------------|
|-------------------------------------|-------------------------------------|
|----------44445555---------33334444--|----------77778888---------66667777--|
|--22222222---------11111111----------|--55555555---------44444444----------|
|  ........         ........             ........         ........
|
|Guitar 2
|-------------------------------------|-------------------------------------|
|-------------------------------------|-------------------------------------|
|-------------------------------------|-------------------------------------|
|-------------------------------------|-------------------------------------|
|----------44445555---------33334444--|----------77778888---------66667777--|
|--22222222---------11111111----------|--55555555---------44444444----------|
|  ........         ........             ........         ........

|Verse Riff B2 x1
|Guitar 1
|-------------------------------------|-----------------------------------------|
|-------------------------------------|-----------------------------------------|
|-------------------------------------|-----------------------------------------|
|----------66667777---------55556666--|----------999910101010---------88889999--|
|--44444444---------33333333----------|--77777777-------------66666666----------|
|-------------------------------------|-----------------------------------------|
|  ........         ........             ........             ........
|
|Guitar 2
|-------------------------------------|----------------------------------------|
|-------------------------------------|----------------------------------------|
|-------------------------------------|----------------------------------------|
|-------------------------------------|----------------------------------------|
|----------44445555---------33334444--|----------77778888------------66667777--|
|--22222222---------11111111----------|--55555555------------44444444----------|
|  ........         ........             ........            ........

Bridge Riff A1 x1
|Guitar 1
|-------------------------------------|------------------------------------|
|-------------------------------------|------------------------------------|
|-------------------------------------|------------------55554444----------|
|--5----------------------------------|------66665555------------55556666--|
|--3----------------------------------|--3333--------6666------------------|
|-------------------------------------|------------------------------------|
|                                        ....        ....
|
|Guitar 2
|-------------------------------------|------------------------------------|
|-------------------------------------|------------------------------------|
|-------------------------------------|------------------55554444----------|
|-------66665555----55554444----------|------66665555------------55556666--|
|--3333---------6666--------33334444--|--3333--------6666------------------|
|-------------------------------------|------------------------------------|
   ....         ....        ....         ....        ....        

Bridge Riff A2 x1
|Guitar 1
|--------------------------------|-----------------------------|
|--------------------------------|-----------------------------|
|-------8-7------7-6-------------|-------8-7----------7777-8~--|
|-------6-5------5-4------6-(6)--|-------6-5------5-4----------|
|--3333-----3333-----3333-4-(4)--|--3333-----3333--------------|
|--------------------------------|-----------------------------|
|  ....     ....     ....           ....     ....          
|
|Guitar 2
|--------------------------------|-----------------------------|
|--------------------------------|-----------------------------|
|-------8-7------7-6-------------|-------8-7-------------------|
|-------6-5------5-4------6-(6)--|-------6-5------5-4-5555-6~--|
|--3333-----3333-----3333-4-(4)--|--3333-----3333--------------|
|--------------------------------|-----------------------------|
|  ....     ....     ....           ....     ....          

Bridge Riff B x2
|Guitar 1
|-------------------|-------------------|
|-------------------|-------------------|
|-------------------|-------------------|
|--------6-5--------|--------6-5--------|
|----7-6-----7-6-7--|----6-5-----6-5-6--|
|--4----------------|--3----------------|
|
|
|Guitar 2
|-------------------|-------------------|
|-------------------|-------------------|
|-------------------|-------------------|
|-------------------|-------------------|
|--6-(6)-------(6)--|--5-(5)-------(5)--|
|--4-(4)-------(4)--|--3-(3)-------(3)--|

Verse Riff C1 x1
|Guitar 1
|----------------------------------|----------------------------------|
|----------------------------------|----------------------------------|
|----------------------------------|----------------------------------|
|------------66665555--------------|------------66665555--------------|
|----77776666--------777766667777--|----66665555--------666655556666--|
|--44------------------------------|--33------------------------------|
|
|
|Guitar 2
|----------------------------------|----------------------------------|
|----------------------------------|----------------------------------|
|----------------------------------|----------------------------------|
|------------66665555--------------|------------66665555--------------|
|----77776666--------777766667777--|----66665555--------666655556666--|
|--44------------------------------|--33------------------------------|

Verse Riff C2 x1
|Guitar 1
|----------------------------------|---------------------------|
|----------------------------------|---------------------------|
|----------------------------------|---------------------------|
|------------66665555--------------|------------66665555-------|
|----77776666--------777766667777--|----66665555---------6-5~--|
|--44------------------------------|--33-----------------------|
|                                                          *
|
|Guitar 2
|----------------------------------|---------------------------|
|----------------------------------|---------------------------|
|----------------------------------|---------------------------|
|------------66665555--------------|------------66665555-------|
|----77776666--------777766667777--|----66665555---------6-5~--|
|--44------------------------------|--33-----------------------|
                                                           *
Chorus Riff A1 x2
|Guitar 1
|----------------------------------|----------------------------------|
|----------------------------------|----------------------------------|
|----------------------------------|----------------------------------|
|----------------------------------|----------------------------------|
|----------------------3----4------|----------------------4----3------|
|--22222222111111111111-1111-1111--|--22222222111111111111-1111-1111--|
|  .................... .... ....     .................... .... ....
|
|Guitar 2
|----------------------------------|----------------------------------|
|----------------------------------|----------------------------------|
|----------------------------------|----------------------------------|
|----------------------------------|----------------------------------|
|----------------------3----4------|----------------------4----3------|
|--22222222111111111111-1111-1111--|--22222222111111111111-1111-1111--|
   .................... .... ....     .................... .... ....

Chorus Riff A2 x2
|Guitar 1
|----------------------------------|----------------------------------|
|----------------------------------|----------------------------------|
|----------------------------------|----------------------------------|
|----------------------3----4------|----------------------4----3------|
|----------------------------------|----------------------------------|
|--22222222111111111111-1111-1111--|--22222222111111111111-1111-1111--|
|  .................... .... ....     .................... .... ....
|
|
|Guitar 2
|----------------------------------|----------------------------------|
|----------------------------------|----------------------------------|
|----------------------------------|----------------------------------|
|----------------------------------|----------------------------------|
|----------------------3----4------|----------------------4----3------|
|--22222222111111111111-1111-1111--|--22222222111111111111-1111-1111--|
   .................... .... ....     .................... .... ....

Bridge Riff C2 x2
|Guitar 1
|-------------------|
|-------------------|
|-------------------|
|-------------------|
|--2-1-----3-2-3-2--|
|------2-1-----1-0--|
|
|
|Guitar 2
|-------------------|
|-------------------|
|-------------------|
|-------------------|
|--2-1-----3-2-3-2--|
|------2-1-----1-0--|


Welp. Yeah. 
Добавлено: 02.01.2016
Другие материалы по этой песне:
  • Аккорды и текст

Страница создана 02.01.2016
http://primanota.ru/gruesome/closed-casket-chords.htm
Привет, Гость.
Предлагаем пройти революционный курс по гитаре.
Подарок от PrimaNota.Ru, забирай!