PrimaNota.ru - самый крупный в мире бесплатный архив песенных текстов, аккордов, табулатур и нот


Grudge Project - We Do Noise - таба, видео

Регистрация Запомнить меня
Войти через:  Facebook Google Twitter Vk Yandex Mail.ru

Grudge Project - We Do Noise - таба, видео

Печатать
Просмотров: 89
Tempo = 120
Drop D

Intro-Intro2-Verso-Precoro-Verso-Precoro-Coro-Verso-Preocoro-Coro-Puente-Precoro-Coro-Puente-Final

Intro
E |----|----|----|----|----|----|----|----|----|----|----|----|----|----|----|
B |----|----|----|----|----|----|----|----|----|----|----|----|----|----|----|
G |----|----|----|----|----|----|----|----|----|----|----|----|----|----|----|
D |----|----|----|----|----|----|----|----|----|----|----|----|----|----|----|
A |----|----|----|----|----|----|----|----|----|----|----|----|----|----|----|
D |----|----|----|----|----|----|----|----|----|----|----|----|----|----|----|


----|----|----|----|----|----|----|----|----|----|----|----|----|----|----|----|
----|----|----|----|----|----|----|----|----|----|----|----|----|----|----|----|
----|----|----|----|----|----|----|----|----|----|----|----|----|----|----|----|
----|----|----|----|----|----|----|----|----|----|----|----|----|----|----|----|
----|----|----|----|----|----|----|----|----|----|----|----|----|----|----|----|
----|----|----|----|----|----|----|----|----|----|----|----|----|----|----|----|

Intro 2
----------|----------------------------|----------------------------|
----------|----------------------------|----------------------------|
----------|----------------------------|----------------------------|
----------|----------------------------|----------------------------|
----------|----------------------------|----------------------------|
--0--0----|--1-----2-----2--6--3--2----|--1-----2-----2--6--3--2----|


----------------------------|----------------------------|
----------------------------|----------------------------|
----------------------------|----------------------------|
----------------------------|----------------------------|
----------------------------|----------------------------|
--1-----2-----2--6--3--2----|--1-----2-----2--6--3--2----|


----------------------------|----------------------------|
----------------------------|----------------------------|
----------------------------|----------------------------|
----------------------------|----------------------------|
----------------------------|----------------------------|
--1-----2-----2--6--3--2----|--1-----2-----2--6--3--2----|


----------------------------|----------------------------|
----------------------------|----------------------------|
----------------------------|----------------------------|
----------------------------|----------------------------|
----------------------------|----------------------------|
--1-----2-----2--6--3--2----|--1-----2-----2--6--3--2----|


----------------------------|----------------------------|
----------------------------|----------------------------|
----------------------------|----------------------------|
----------------------------|----------------------------|
----------------------------|----------------------------|
--1-----2-----2--6--3--2----|--1-----2-----2--6--3--2----|


----------------------------|----------------------------|
----------------------------|----------------------------|
----------------------------|----------------------------|
----------------------------|----------------------------|
----------------------------|----------------------------|
--1-----2-----2--6--3--2----|--1-----2|

Verso
----------------------------|----------------------------|
----------------------------|----------------------------|
----------------------------|----------------------------|
----------------------------|----------------------------|
----------------------------|----------------------------|
--1--1--1--1--1--1--1--1----|--1--1--1--1--1--1--1--1----|


----------------------------|----------------------------|
----------------------------|----------------------------|
----------------------------|----------------------------|
----------------------------|----------------------------|
----------------------------|----------------------------|
--2--2--2--2--2--2--2--2----|--2--2--2--2--2--2--2--2----|


----------------------------|----------------------------|
----------------------------|----------------------------|
----------------------------|----------------------------|
----------------------------|----------------------------|
----------------------------|----------------------------|
--6--6--6--6--6--6--6--6----|--6--6--6--6--6--6--6--6----|


----------------------------|----------------------------|
----------------------------|----------------------------|
----------------------------|----------------------------|
----------------------------|----------------------------|
----------------------------|----------------------------|
--2--2--2--2--2--2--2--2----|--2--2--2--2--2--2--2--2----|

Precoro
----------------------------------------------------|
----------------------------------------------------|
----------------------------------------------------|
--------------------------------------3-----1-------|
--------------------------------------3-----1-------|
--------------------------------------3-----1-------|


----------------------------------------------------|
----------------------------------------------------|
----------------------------------------------------|
--------------------------------------3-----1-------|
--------------------------------------3-----1-------|
--3--3--3--3--3--3--3--3--3--3--3--3--3-----1-------|

Verso
----------------------------|----------------------------|
----------------------------|----------------------------|
----------------------------|----------------------------|
----------------------------|----------------------------|
----------------------------|----------------------------|
--1--1--1--1--1--1--1--1----|--1--1--1--1--1--1--1--1----|


----------------------------|----------------------------|
----------------------------|----------------------------|
----------------------------|----------------------------|
----------------------------|----------------------------|
----------------------------|----------------------------|
--2--2--2--2--2--2--2--2----|--2--2--2--2--2--2--2--2----|


----------------------------|----------------------------|
----------------------------|----------------------------|
----------------------------|----------------------------|
----------------------------|----------------------------|
----------------------------|----------------------------|
--6--6--6--6--6--6--6--6----|--6--6--6--6--6--6--6--6----|


----------------------------|----------------------------|
----------------------------|----------------------------|
----------------------------|----------------------------|
----------------------------|----------------------------|
----------------------------|----------------------------|
--2--2--2--2--2--2--2--2----|--2--2--2--2--2--2--2--2----|

Precoro
----------------------------------------------------|
----------------------------------------------------|
----------------------------------------------------|
--------------------------------------3-----1-------|
--------------------------------------3-----1-------|
--------------------------------------3-----1-------|


----------------------------------------------------|
----------------------------------------------------|
----------------------------------------------------|
--------------------------------------3-----1-------|
--------------------------------------3-----1-------|
--3--3--3--3--3--3--3--3--3--3--3--3--3-----1-------|

Coro
----------------------------|----------------------------|
----------------------------|----------------------------|
----------------------------|----------------------------|
----------------------------|----------------------------|
----------------------------|----------------------------|
--1-----2-----2--6--3--2----|--1-----2-----2--6--3--2----|


----------------------------|----------------------------|
----------------------------|----------------------------|
----------------------------|----------------------------|
----------------------------|----------------------------|
----------------------------|----------------------------|
--1-----2-----2--6--3--2----|--1-----2-----2--6--3--2----|


----------------------------|----------------------------|
----------------------------|----------------------------|
----------------------------|----------------------------|
----------------------------|----------------------------|
----------------------------|----------------------------|
--1-----2-----2--6--3--2----|--1-----2-----2--6--3--2----|


----------------------------|----------------------------|
----------------------------|----------------------------|
----------------------------|----------------------------|
----------------------------|----------------------------|
----------------------------|----------------------------|
--1-----2-----2--6--3--2----|--1-----2-----2--6--3--2----|

Verso
----------------------------|----------------------------|
----------------------------|----------------------------|
----------------------------|----------------------------|
----------------------------|----------------------------|
----------------------------|----------------------------|
--1--1--1--1--1--1--1--1----|--1--1--1--1--1--1--1--1----|


----------------------------|----------------------------|
----------------------------|----------------------------|
----------------------------|----------------------------|
----------------------------|----------------------------|
----------------------------|----------------------------|
--2--2--2--2--2--2--2--2----|--2--2--2--2--2--2--2--2----|


----------------------------|----------------------------|
----------------------------|----------------------------|
----------------------------|----------------------------|
----------------------------|----------------------------|
----------------------------|----------------------------|
--6--6--6--6--6--6--6--6----|--6--6--6--6--6--6--6--6----|


----------------------------|----------------------------|
----------------------------|----------------------------|
----------------------------|----------------------------|
----------------------------|----------------------------|
----------------------------|----------------------------|
--2--2--2--2--2--2--2--2----|--2--2--2--2--2--2--2--2----|

Precoro
----------------------------------------------------|
----------------------------------------------------|
----------------------------------------------------|
--------------------------------------3-----1-------|
--------------------------------------3-----1-------|
--------------------------------------3-----1-------|


----------------------------------------------------|
----------------------------------------------------|
----------------------------------------------------|
--------------------------------------3-----1-------|
--------------------------------------3-----1-------|
--3--3--3--3--3--3--3--3--3--3--3--3--3-----1-------|

Coro
----------------------------|----------------------------|
----------------------------|----------------------------|
----------------------------|----------------------------|
----------------------------|----------------------------|
----------------------------|----------------------------|
--1-----2-----2--6--3--2----|--1-----2-----2--6--3--2----|


----------------------------|----------------------------|
----------------------------|----------------------------|
----------------------------|----------------------------|
----------------------------|----------------------------|
----------------------------|----------------------------|
--1-----2-----2--6--3--2----|--1-----2-----2--6--3--2----|


----------------------------|----------------------------|
----------------------------|----------------------------|
----------------------------|----------------------------|
----------------------------|----------------------------|
----------------------------|----------------------------|
--1-----2-----2--6--3--2----|--1-----2-----2--6--3--2----|


----------------------------|----------------------------|----------------|
----------------------------|----------------------------|----------------|
----------------------------|----------------------------|----------------|
----------------------------|----------------------------|--3--3-----1----|
----------------------------|----------------------------|--3--3-----1----|
--1-----2-----2--6--3--2----|--1-----2-----2--6--3--2----|--3--3--2--1----|

Puente
----------------|----------------|----------------|----------------|
----------------|----------------|----------------|----------------|
----------------|----------------|----------------|----------------|
--3--3-----1----|--3--3-----1----|--3--3-----1----|--3--3-----1----|
--3--3-----1----|--3--3-----1----|--3--3-----1----|--3--3-----1----|
--3--3--2--1----|--3--3--2--1----|--3--3--2--1----|--3--3--2--1----|


----------------|----------------|----------------|----------------|
----------------|----------------|----------------|----------------|
----------------|----------------|----------------|----------------|
--3--3-----1----|--3--3-----1----|--3--3-----1----|--3--3-----1----|
--3--3-----1----|--3--3-----1----|--3--3-----1----|--3--3-----1----|
--3--3--2--1----|--3--3--2--1----|--3--3--2--1----|--3--3--2--1----|


----------------|----------------|----------------|----------------|
----------------|----------------|----------------|----------------|
----------------|----------------|----------------|----------------|
--3--3-----1----|--3--3-----1----|--3--3-----1----|--3--3-----1----|
--3--3-----1----|--3--3-----1----|--3--3-----1----|--3--3-----1----|
--3--3--2--1----|--3--3--2--1----|--3--3--2--1----|--3--3--2--1----|


----------------|----------------|----------------|----------------|
----------------|----------------|----------------|----------------|
----------------|----------------|----------------|----------------|
--3--3-----1----|--3--3-----1----|--3--3-----1----|--3--3-----1----|
--3--3-----1----|--3--3-----1----|--3--3-----1----|--3--3-----1----|
--3--3--2--1----|--3--3--2--1----|--3--3--2--1----|--3--3--2--1----|


----------------|----------------|----------------|----------------|
----------------|----------------|----------------|----------------|
----------------|----------------|----------------|----------------|
--3--3-----1----|--3--3-----1----|--3--3-----1----|--3--3-----1----|
--3--3-----1----|--3--3-----1----|--3--3-----1----|--3--3-----1----|
--3--3--2--1----|--3--3--2--1----|--3--3--2--1----|--3--3--2--1----|


----------------|----------------|----------------|----------------|
----------------|----------------|----------------|----------------|
----------------|----------------|----------------|----------------|
--3--3-----1----|--3--3-----1----|--3--3-----1----|--3--3-----1----|
--3--3-----1----|--3--3-----1----|--3--3-----1----|--3--3-----1----|
--3--3--2--1----|--3--3--2--1----|--3--3--2--1----|--3--3--2--1----|


----------------|----------------|----------------|----|
----------------|----------------|----------------|----|
----------------|----------------|----------------|----|
--3--3-----1----|--3--3-----1----|--3--3-----1----|----|
--3--3-----1----|--3--3-----1----|--3--3-----1----|----|
--3--3--2--1----|--3--3--2--1----|--3--3--2--1----|----|

Precoro
----------------------------------------------------|
----------------------------------------------------|
----------------------------------------------------|
--------------------------------------3-----1-------|
--------------------------------------3-----1-------|
--------------------------------------3-----1-------|


----------------------------------------------------|
----------------------------------------------------|
----------------------------------------------------|
--------------------------------------3-----1-------|
--------------------------------------3-----1-------|
--3--3--3--3--3--3--3--3--3--3--3--3--3-----1-------|

Coro
----------------------------|----------------------------|
----------------------------|----------------------------|
----------------------------|----------------------------|
----------------------------|----------------------------|
----------------------------|----------------------------|
--1-----2-----2--6--3--2----|--1-----2-----2--6--3--2----|


----------------------------|----------------------------|
----------------------------|----------------------------|
----------------------------|----------------------------|
----------------------------|----------------------------|
----------------------------|----------------------------|
--1-----2-----2--6--3--2----|--1-----2-----2--6--3--2----|


----------------------------|----------------------------|
----------------------------|----------------------------|
----------------------------|----------------------------|
----------------------------|----------------------------|
----------------------------|----------------------------|
--1-----2-----2--6--3--2----|--1-----2-----2--6--3--2----|


----------------------------|----------------------------|----------------|
----------------------------|----------------------------|----------------|
----------------------------|----------------------------|----------------|
----------------------------|----------------------------|--3--3-----1----|
----------------------------|----------------------------|--3--3-----1----|
--1-----2-----2--6--3--2----|--1-----2-----2--6--3--2----|--3--3--2--1----|

Puente
----------------|----------------|----------------|----------------|
----------------|----------------|----------------|----------------|
----------------|----------------|----------------|----------------|
--3--3-----1----|--3--3-----1----|--3--3-----1----|--3--3-----1----|
--3--3-----1----|--3--3-----1----|--3--3-----1----|--3--3-----1----|
--3--3--2--1----|--3--3--2--1----|--3--3--2--1----|--3--3--2--1----|


----------------|----------------|----------------|----------------|
----------------|----------------|----------------|----------------|
----------------|----------------|----------------|----------------|
--3--3-----1----|--3--3-----1----|--3--3-----1----|--3--3-----1----|
--3--3-----1----|--3--3-----1----|--3--3-----1----|--3--3-----1----|
--3--3--2--1----|--3--3--2--1----|--3--3--2--1----|--3--3--2--1----|

                                  Final
----------------|-------|-------|----------------------------|
----------------|-------|-------|----------------------------|
----------------|--8---|--8----|--8--8--8--8--8--8--8--8----|
--3--3-----1----|--8---|--8----|--8--8--8--8--8--8--8--8----|
--3--3-----1----|--6---|--6----|--6--6--6--6--6--6--6--6----|
--3--3--2--1----|-------|-------|----------------------------|


----------------------------|----------------------------|
----------------------------|----------------------------|
--8--8--8--8--8--8--8--8----|----------------------------|
--8--8--8--8--8--8--8--8----|--8--8--8--8--8--8--8--8----|
--6--6--6--6--6--6--6--6----|--8--8--8--8--8--8--8--8----|
----------------------------|--8--8--8--8--8--8--8--8----|


----------------------------|----------------------------|
----------------------------|----------------------------|
----------------------------|----------------------------|
--8--8--8--8--8--8--8--8----|--6--6--6--6--6--6--6--6----|
--8--8--8--8--8--8--8--8----|--6--6--6--6--6--6--6--6----|
--8--8--8--8--8--8--8--8----|--6--6--6--6--6--6--6--6----|


----------------------------|----------------------------|
----------------------------|----------------------------|
----------------------------|----------------------------|
--6--6--6--6--6--6--6--6----|--7--7--7--7--7--7--7--7----|
--6--6--6--6--6--6--6--6----|--7--7--7--7--7--7--7--7----|
--6--6--6--6--6--6--6--6----|--7--7--7--7--7--7--7--7----|


----------------------------|----------------------------|
----------------------------|----------------------------|
----------------------------|----------------------------|
--7--7--7--7--7--7--7--7----|--13-13-13-13-13-13-13-13---|
--7--7--7--7--7--7--7--7----|--13-13-13-13-13-13-13-13---|
--7--7--7--7--7--7--7--7----|--13-13-13-13-13-13-13-13---|


----------------------------|----------------------------|
----------------------------|----------------------------|
----------------------------|----------------------------|
--13-13-13-13-13-13-13-13---|--8--8--8--8--8--8--8--8----|
--13-13-13-13-13-13-13-13---|--8--8--8--8--8--8--8--8----|
--13-13-13-13-13-13-13-13---|--8--8--8--8--8--8--8--8----|


----------------------------|----------------------------|
----------------------------|----------------------------|
----------------------------|----------------------------|
--8--8--8--8--8--8--8--8----|--6--6--6--6--6--6--6--6----|
--8--8--8--8--8--8--8--8----|--6--6--6--6--6--6--6--6----|
--8--8--8--8--8--8--8--8----|--6--6--6--6--6--6--6--6----|


----------------------------|----------------------------|
----------------------------|----------------------------|
----------------------------|----------------------------|
--6--6--6--6--6--6--6--6----|--7--7--7--7--7--7--7--7----|
--6--6--6--6--6--6--6--6----|--7--7--7--7--7--7--7--7----|
--6--6--6--6--6--6--6--6----|--7--7--7--7--7--7--7--7----|


----------------------------|----------------|-------||
----------------------------|----------------|-------||
----------------------------|----------------|-------||
--7--7--7--7--7--7--7--7----|--13-8--6--7----|--13---||
--7--7--7--7--7--7--7--7----|--13-8--6--7----|--13---||
--7--7--7--7--7--7--7--7----|--13-8--6--7----|--13---||
Добавлено: 14.12.2015
Другие материалы по этой песне:
  • Аккорды и текст

Страница создана 14.12.2015
http://primanota.ru/grudge-project/we-do-noise-chords.htm
Привет, Гость.
Предлагаем пройти революционный курс по гитаре.
Подарок от PrimaNota.Ru, забирай!