PrimaNota.ru - самый крупный в мире бесплатный архив песенных текстов, аккордов, табулатур и нот


Grudge Project - They Say I Cant Do It By Myself - таба, видео

Регистрация Запомнить меня
Войти через:  Facebook Google Twitter Vk Yandex Mail.ru

Grudge Project - They Say I Cant Do It By Myself - таба, видео

Печатать
Просмотров: 49
Tempo = 133
Electric Guitar

Legend
L - tied note
x - dead note
h - hammer on/pull off
b - bend
s - slide
~ - vibrato
g - ghost note
> - accentuated note
t - trill
M - palm mute
. - staccato
P - popping (bass)
S - slapping (bass)
+ - tapping
W - wide vibrato
< - fade in
w - whammy bar
= - tremolo picking
v - brush up
^ - brush down
V - pick stroke up
n - pick stroke down


E |----------------------------------------------------|
B |----------------------------------------------------|
G |----------------------------------------------------|
D |----------------------------------------------------|
A |--10----------10----x--x--x--x--9-----9-----0-------|
E |--8-----------8-----x--x--x--x--7-----7-----0-------|


----------------------------------------------------|
----------------------------------------------------|
----------------------------------------------------|
----------------------------------------------------|
--7-----------7-----x--x--9-----9-----5-----5-------|
--5-----------5-----x--x--7-----7-----3-----3-------|


----------------------------------------------------|
----------------------------------------------------|
----------------------------------------------------|
----------------------------------------------------|
--10----------10----x--x--x--x--9-----9-----0-------|
--8-----------8-----x--x--x--x--7-----7-----0-------|


----------------------------------------------------|
----------------------------------------------------|
----------------------------------------------------|
----------------------------------------------------|
--7-----------7-----x--x--9-----9-----5-----5-------|
--5-----------5-----x--x--7-----7-----3-----3-------|


----------------------------------------------------|
----------------------------------------------------|
----------------------------------------------------|
----------------------------------------------------|
--10----------10----x--x--x--x--9-----9-----0-------|
--8-----------8-----x--x--x--x--7-----7-----0-------|


----------------------------------------------------|
----------------------------------------------------|
----------------------------------------------------|
----------------------------------------------------|
--7-----------7-----x--x--9-----9-----5-----5-------|
--5-----------5-----x--x--7-----7-----3-----3-------|


----------------------------------------------------|
----------------------------------------------------|
----------------------------------------------------|
----------------------------------------------------|
--10----------10----x--x--x--x--9-----9-----0-------|
--8-----------8-----x--x--x--x--7-----7-----0-------|


----------------------------------------------------|
----------------------------------------------------|
----------------------------------------------------|
----------------------------------------------------|
--7-----------7-----x--x--9-----9-----5-----5-------|
--5-----------5-----x--x--7-----7-----3-----3-------|


----------------------------------------------------|
----------------------------------------------------|
----------------------------------------------------|
----------------------------------------------------|
--10----------10----x--x--x--x--9-----9-----0-------|
--8-----------8-----x--x--x--x--7-----7-----0-------|


----------------------------------------------------|
----------------------------------------------------|
----------------------------------------------------|
----------------------------------------------------|
--7-----------7-----x--x--9-----9-----5-----5-------|
--5-----------5-----x--x--7-----7-----3-----3-------|


----------------------------------------------------|
----------------------------------------------------|
----------------------------------------------------|
----------------------------------------------------|
--10----------10----x--x--x--x--9-----9-----0-------|
--8-----------8-----x--x--x--x--7-----7-----0-------|


----------------------------------------------------|
----------------------------------------------------|
----------------------------------------------------|
----------------------------------------------------|
--7-----------7-----x--x--9-----9-----5-----5-------|
--5-----------5-----x--x--7-----7-----3-----3-------|


----------------------------------------------------|
----------------------------------------------------|
----------------------------------------------------|
----------------------------------------------------|
--10----------10----x--x--x--x--9-----9-----0-------|
--8-----------8-----x--x--x--x--7-----7-----0-------|


----------------------------------------------------|
----------------------------------------------------|
----------------------------------------------------|
----------------------------------------------------|
--7-----------7-----x--x--9-----9-----5-----5-------|
--5-----------5-----x--x--7-----7-----3-----3-------|


----------------------------------------------------|
----------------------------------------------------|
----------------------------------------------------|
----------------------------------------------------|
--10----------10----x--x--x--x--9-----9-----0-------|
--8-----------8-----x--x--x--x--7-----7-----0-------|


----------------------------------------------------|
----------------------------------------------------|
----------------------------------------------------|
----------------------------------------------------|
--7-----------7-----x--x--9-----9-----5-----5-------|
--5-----------5-----x--x--7-----7-----3-----3-------|


----------------------------|----------------------------|
----------------------------|----------------------------|
----------------------------|----------------------------|
----------------------------|----------------------------|
--5-----5--5-----5--5--5----|--9--9M-9M-9M-9M-9M-9M-9M---|
--3-----3--3-----3--3--3----|--7--7M-7M-7M-7M-7M-7M-7M---|


----------------------------|----------------------------|
----------------------------|----------------------------|
----------------------------|----------------------------|
----------------------------|----------------------------|
--9M-9M-9M-9M-5--5--5--9L---|--9--9M-9M-9M-9M-9M-9M-9M---|
--7M-7M-7M-7M-3--3--3--7L---|--7--7M-7M-7M-7M-7M-7M-7M---|


----------------------------|----------------------------|
----------------------------|----------------------------|
----------------------------|----------------------------|
----------------------------|----------------------------|
--9M-9M-9M-9M-5--5--5--9L---|--9--9M-9M-9M-9M-9M-9M-9M---|
--7M-7M-7M-7M-3--3--3--7L---|--7--7M-7M-7M-7M-7M-7M-7M---|


----------------------------|----------------------------|
----------------------------|----------------------------|
----------------------------|----------------------------|
----------------------------|----------------------------|
--9M-9M-9M-9M-5--5--5--9L---|--9--9M-9M-9M-9M-9M-9M-9M---|
--7M-7M-7M-7M-3--3--3--7L---|--7--7M-7M-7M-7M-7M-7M-7M---|


----------------------------|----------------------------|
----------------------------|----------------------------|
----------------------------|----------------------------|
----------------------------|----------------------------|
--9M-9M-9M-9M-10-10-10-9L---|--9--9M-9M-9M-9M-9M-9M-9M---|
--7M-7M-7M-7M-8--8--8--7L---|--7--7M-7M-7M-7M-7M-7M-7M---|


----------------------------|----------------------------|
----------------------------|----------------------------|
----------------------------|----------------------------|
----------------------------|----------------------------|
--9M-9M-9M-9M-5--5--5--9L---|--9--9M-9M-9M-9M-9M-9M-9M---|
--7M-7M-7M-7M-3--3--3--7L---|--7--7M-7M-7M-7M-7M-7M-7M---|


----------------------------|----------------------------|
----------------------------|----------------------------|
----------------------------|----------------------------|
----------------------------|----------------------------|
--9M-9M-9M-9M-5--5--5--9L---|--9--9M-9M-9M-9M-9M-9M-9M---|
--7M-7M-7M-7M-3--3--3--7L---|--7--7M-7M-7M-7M-7M-7M-7M---|


----------------------------|----------------------------|-------|
----------------------------|----------------------------|-------|
----------------------------|----------------------------|-------|
----------------------------|----------------------------|-------|
--9M-9M-9M-9M-5--5--5--9L---|--9--9M-9M-9M-9M-9M-9M-9M---|--9----|
--7M-7M-7M-7M-3--3--3--7L---|--7--7M-7M-7M-7M-7M-7M-7M---|--7----|


----------------------------------------------------|
----------------------------------------------------|
----------------------------------------------------|
----------------------------------------------------|
--10----------10----x--x--x--x--9-----9-----0-------|
--8-----------8-----x--x--x--x--7-----7-----0-------|


----------------------------------------------------|
----------------------------------------------------|
----------------------------------------------------|
----------------------------------------------------|
--7-----------7-----x--x--9-----9-----5-----5-------|
--5-----------5-----x--x--7-----7-----3-----3-------|


----------------------------------------------------|
----------------------------------------------------|
----------------------------------------------------|
----------------------------------------------------|
--10----------10----x--x--x--x--9-----9-----0-------|
--8-----------8-----x--x--x--x--7-----7-----0-------|


----------------------------------------------------|
----------------------------------------------------|
----------------------------------------------------|
----------------------------------------------------|
--7-----------7-----x--x--9-----9-----5-----5-------|
--5-----------5-----x--x--7-----7-----3-----3-------|


----------------------------------------------------|
----------------------------------------------------|
----------------------------------------------------|
----------------------------------------------------|
--10----------10----x--x--x--x--9-----9-----0-------|
--8-----------8-----x--x--x--x--7-----7-----0-------|


----------------------------------------------------|
----------------------------------------------------|
----------------------------------------------------|
----------------------------------------------------|
--7-----------7-----x--x--9-----9-----5-----5-------|
--5-----------5-----x--x--7-----7-----3-----3-------|


----------------------------------------------------|
----------------------------------------------------|
----------------------------------------------------|
----------------------------------------------------|
--10----------10----x--x--x--x--9-----9-----0-------|
--8-----------8-----x--x--x--x--7-----7-----0-------|


----------------------------------------------------|
----------------------------------------------------|
----------------------------------------------------|
----------------------------------------------------|
--7-----------7-----x--x--9-----9-----5-----5-------|
--5-----------5-----x--x--7-----7-----3-----3-------|


----------------------------|----------------------------|
----------------------------|----------------------------|
----------------------------|----------------------------|
----------------------------|----------------------------|
--5-----5--5-----5--5--5----|--9--9M-9M-9M-9M-9M-9M-9M---|
--3-----3--3-----3--3--3----|--7--7M-7M-7M-7M-7M-7M-7M---|


----------------------------|----------------------------|
----------------------------|----------------------------|
----------------------------|----------------------------|
----------------------------|----------------------------|
--9M-9M-9M-9M-5--5--5--9L---|--9--9M-9M-9M-9M-9M-9M-9M---|
--7M-7M-7M-7M-3--3--3--7L---|--7--7M-7M-7M-7M-7M-7M-7M---|


----------------------------|----------------------------|
----------------------------|----------------------------|
----------------------------|----------------------------|
----------------------------|----------------------------|
--9M-9M-9M-9M-5--5--5--9L---|--9--9M-9M-9M-9M-9M-9M-9M---|
--7M-7M-7M-7M-3--3--3--7L---|--7--7M-7M-7M-7M-7M-7M-7M---|


----------------------------|----------------------------|
----------------------------|----------------------------|
----------------------------|----------------------------|
----------------------------|----------------------------|
--9M-9M-9M-9M-5--5--5--9L---|--9--9M-9M-9M-9M-9M-9M-9M---|
--7M-7M-7M-7M-3--3--3--7L---|--7--7M-7M-7M-7M-7M-7M-7M---|


----------------------------|----------------------------|
----------------------------|----------------------------|
----------------------------|----------------------------|
----------------------------|----------------------------|
--9M-9M-9M-9M-10-10-10-9L---|--9--9M-9M-9M-9M-9M-9M-9M---|
--7M-7M-7M-7M-8--8--8--7L---|--7--7M-7M-7M-7M-7M-7M-7M---|


----------------------------|----------------------------|
----------------------------|----------------------------|
----------------------------|----------------------------|
----------------------------|----------------------------|
--9M-9M-9M-9M-5--5--5--9L---|--9--9M-9M-9M-9M-9M-9M-9M---|
--7M-7M-7M-7M-3--3--3--7L---|--7--7M-7M-7M-7M-7M-7M-7M---|


----------------------------|----------------------------|
----------------------------|----------------------------|
----------------------------|----------------------------|
----------------------------|----------------------------|
--9M-9M-9M-9M-5--5--5--9L---|--9--9M-9M-9M-9M-9M-9M-9M---|
--7M-7M-7M-7M-3--3--3--7L---|--7--7M-7M-7M-7M-7M-7M-7M---|


----------------------------|----------------------------|-------|----------|
----------------------------|----------------------------|-------|----------|
----------------------------|----------------------------|-------|----------|
----------------------------|----------------------------|-------|----------|
--9M-9M-9M-9M-5--5--5--9L---|--9--9M-9M-9M-9M-9M-9M-9M---|--9----|--7--5----|
--7M-7M-7M-7M-3--3--3--7L---|--7--7M-7M-7M-7M-7M-7M-7M---|--7----|--5--3----|


-------|-------|-------|-------|----------|-------|-------|
-------|-------|-------|-------|----------|-------|-------|
-------|-------|-------|-------|----------|-------|-------|
-------|-------|-------|-------|----------|-------|-------|
--4----|--10---|--9----|--10---|--7--5----|--4L---|--4----|
--2----|--8----|--7----|--8----|--5--3----|--2L---|--2----|


----------------------------|----|----------------------------|----|
----------------------------|----|----------------------------|----|
----------------------------|----|----------------------------|----|
----------------------------|----|----------------------------|----|
--------7--5----------------|----|-----8--5--7--5-------------|----|
--5-----------7--8--3-------|----|--5--------------8--7--5----|----|


----------------------------|----|----|----|----------------------------|
----------------------------|----|----|----|----------------------------|
----------------------------|----|----|----|----------------------------|
----------------------------|----|----|----|----------------------------|
-----8--5--7--5-------------|----|----|----|--5--5-----5--5--x--5--5----|
--5--------------8--7--5----|----|----|----|--3--3--x--3--3-----3--3----|


----------------------------|----------------------------|
----------------------------|----------------------------|
----------------------------|----------------------------|
----------------------------|----------------------------|
-----5--5--x--3-------------|--5--5-----5--5--x--5--5----|
--x--3--3--x--1-------------|--3--3--x--3--3-----3--3----|


----------------------------|----------------------------|
----------------------------|----------------------------|
----------------------------|----------------------------|
----------------------------|----------------------------|
-----5--5--x--7-------------|--5--5-----5--5--x--5--5----|
--x--3--3--x--5-------------|--3--3--x--3--3-----3--3----|


----------------------------|----------------------------|
----------------------------|----------------------------|
----------------------------|----------------------------|
----------------------------|----------------------------|
-----5--5--x--3-------------|--5--5-----5--5--x--5--5----|
--x--3--3--x--1-------------|--3--3--x--3--3-----3--3----|


----------------------------|----------------------------|
----------------------------|----------------------------|
----------------------------|----------------------------|
----------------------------|----------------------------|
-----5--5--x--7-------------|--5--5-----5--5--x--5--5----|
--x--3--3--x--5-------------|--3--3--x--3--3-----3--3----|


----------------------------|----------------------------|
----------------------------|----------------------------|
----------------------------|----------------------------|
----------------------------|----------------------------|
-----5--5--x--3-------------|--5--5-----5--5--x--5--5----|
--x--3--3--x--1-------------|--3--3--x--3--3-----3--3----|


----------------------------|----------------------------|
----------------------------|----------------------------|
----------------------------|----------------------------|
----------------------------|----------------------------|
-----5--5--x--7-------------|--5--5-----5--5--x--5--5----|
--x--3--3--x--5-------------|--3--3--x--3--3-----3--3----|


----------------------------|----------------------------|
----------------------------|----------------------------|
----------------------------|----------------------------|
----------------------------|----------------------------|
-----5--5--x--3-------------|--5--5-----5--5--x--5--5----|
--x--3--3--x--1-------------|--3--3--x--3--3-----3--3----|


----------------------------|----------------------------|
----------------------------|----------------------------|
----------------------------|----------------------------|
----------------------------|----------------------------|
-----5--5--x--7-------------|--5--5-----5--5--x--5--5----|
--x--3--3--x--5-------------|--3--3--x--3--3-----3--3----|


----------------------------|----------------------------|
----------------------------|----------------------------|
----------------------------|----------------------------|
----------------------------|----------------------------|
-----5--5--x--3-------------|--5--5-----5--5--x--5--5----|
--x--3--3--x--1-------------|--3--3--x--3--3-----3--3----|


----------------------------|----------------------------|
----------------------------|----------------------------|
----------------------------|----------------------------|
----------------------------|----------------------------|
-----5--5--x--7-------------|--5--5-----5--5--x--5--5----|
--x--3--3--x--5-------------|--3--3--x--3--3-----3--3----|


----------------------------|----------------------------|
----------------------------|----------------------------|
----------------------------|----------------------------|
----------------------------|----------------------------|
-----5--5--x--3-------------|--5--5-----5--5--x--5--5----|
--x--3--3--x--1-------------|--3--3--x--3--3-----3--3----|


----------------------------|----------------------------|
----------------------------|----------------------------|
----------------------------|----------------------------|
----------------------------|----------------------------|
-----5--5--x--7-------------|--5--5-----5--5--x--5--5----|
--x--3--3--x--5-------------|--3--3--x--3--3-----3--3----|


----------------------------|----------------------------|
----------------------------|----------------------------|
----------------------------|----------------------------|
----------------------------|----------------------------|
-----5--5--x--3-------------|--5--5-----5--5--x--5--5----|
--x--3--3--x--1-------------|--3--3--x--3--3-----3--3----|


----------------------------|----------------------------|
----------------------------|----------------------------|
----------------------------|----------------------------|
----------------------------|----------------------------|
-----5--5--x--7-------------|--5--5-----5--5--x--5--5----|
--x--3--3--x--5-------------|--3--3--x--3--3-----3--3----|


----------------------------|----------------------------|
----------------------------|----------------------------|
----------------------------|----------------------------|
----------------------------|----------------------------|
-----5--5--x--3-------------|--5--5-----5--5--x--5--5----|
--x--3--3--x--1-------------|--3--3--x--3--3-----3--3----|


----------------------------|----------------------------|
----------------------------|----------------------------|
----------------------------|----------------------------|
----------------------------|----------------------------|
-----5--5--x--7-------------|----------------------------|
--x--3--3--x--5-------------|--------------------0--0----|


----------------------------|----------------------------|
----------------------------|----------------------------|
----------------------------|----------------------------|
----------------------------|----------------------------|
--------------5-----0--1L---|--1-------------------------|
--0-----0-------------------|-----0--3--0-----1--3--5----|


----------------------------|----------------------------|
----------------------------|----------------------------|
----------------------------|----------------------------|
----------------------------|----------------------------|
--------------5-----0--1L---|--1--------------------0----|
--0-----0-------------------|-----0--3--0-----1--3-------|


----------------------------|----------------------------|
----------------------------|----------------------------|
----------------------------|----------------------------|
----------------------------|----------------------------|
--------------5-----0--1L---|--1-------------------------|
--0-----0-------------------|-----0--3--0-----1--3--5----|


----------------------------|----------------------------|-------|-------|
----------------------------|----------------------------|-------|-------|
----------------------------|----------------------------|-------|-------|
----------------------------|-----------------------0L---|--0L---|--0L---|
--------------5-----0--1L---|--1--------------------0L---|--0L---|--0L---|
--0-----0-------------------|-----0--3--0-----1--3-------|-------|-------|


-------|-------|-------|-------|-------|-------|----|
-------|-------|-------|-------|-------|-------|----|
-------|-------|-------|-------|-------|-------|----|
--0L---|--0----|-------|-------|-------|-------|----|
--0L---|--0----|-------|-------|-------|-------|----|
-------|-------|-------|-------|-------|-------|----|


----------------------------|----------------------------|
----------------------------|----------------------------|
----------------------------|----------------------------|
----------------------------|----------------------------|
--4-----2-----------4--4L---|--4--4--2-------------------|
--2-----0-----------2--2L---|--2--2--0-----------0-------|


----------------------------|----------------------------|
----------------------------|----------------------------|
----------------------------|----------------------------|
----------------------------|----------------------------|
--4-----2-----------4--4L---|--4--4--2-------------------|
--2-----0-----------2--2L---|--2--2--0-----------0-------|


----------------------------|----------------------------|
----------------------------|----------------------------|
----------------------------|----------------------------|
----------------------------|----------------------------|
--10----2-----------10-10L--|--10-10-2-------------------|
--8-----0-----------8--8L---|--8--8--0-----------0-------|


----------------------------|----------------------------|
----------------------------|----------------------------|
----------------------------|----------------------------|
----------------------------|----------------------------|
--10----2-----------10-10L--|--10-10-2-------------------|
--8-----0-----------8--8L---|--8--8--0-----------0-------|


----------------------------|----------------------------|
----------------------------|----------------------------|
----------------------------|----------------------------|
----------------------------|----------------------------|
--16----2-----------16-16L--|--16-16-2-------------------|
--14----0-----------14-14L--|--14-14-0-----------0-------|


----------------------------|----------------------------|
----------------------------|----------------------------|
----------------------------|----------------------------|
----------------------------|----------------------------|
--16----2-----------16-16L--|--16-16-2-------------------|
--14----0-----------14-14L--|--14-14-0-----------0M------|


----------------------------|----------------------------|
----------------------------|----------------------------|
----------------------------|----------------------------|
----------------------------|----------------------------|
--2M----2M----------2M-2L---|--2M-2M-2M------------------|
--0M----0M----------0M-0L---|--0M-0M-0M----------0M------|


----------------------------|----------------------------|----|----|----|----|
----------------------------|----------------------------|----|----|----|----|
----------------------------|----------------------------|----|----|----|----|
----------------------------|----------------------------|----|----|----|----|
--2M----2M----------2M-2L---|--2M-2M-2M------------------|----|----|----|----|
--0M----0M----------0M-0L---|--0M-0M-0M------------------|----|----|----|----|


----|----|----|----|----------------------------|----------------------------|
----|----|----|----|----------------------------|----------------------------|
----|----|----|----|----------------------------|----------------------------|
----|----|----|----|----------------------------|----------------------------|
----|----|----|----|--9-----9--9--9-----9--9L---|--9--9--9-----5--5--5--9----|
----|----|----|----|--7-----7--7--7-----7--7L---|--7--7--7L-7--3--3--3--7----|


----------------------------|----------------------------|
----------------------------|----------------------------|
----------------------------|----------------------------|
----------------------------|----------------------------|
--9-----9--9--9-----9--9L---|--9--9--9-----5--5--5--9----|
--7-----7--7--7-----7--7L---|--7--7--7L-7--3--3--3--7----|


----------------------------|----------------------------|
----------------------------|----------------------------|
----------------------------|----------------------------|
----------------------------|----------------------------|
--9-----9--9--9-----9--9L---|--9--9--9-----10-10-10-9----|
--7-----7--7--7-----7--7L---|--7--7--7L-7--8--8--8--7----|


----------------------------|----------------------------|
----------------------------|----------------------------|
----------------------------|----------------------------|
----------------------------|----------------------------|
--9-----9--9--9-----9--9L---|--9--9--9-----5--5--5--9----|
--7-----7--7--7-----7--7L---|--7--7--7L-7--3--3--3--7----|


----------------------------|----------------------------|
----------------------------|----------------------------|
----------------------------|----------------------------|
----------------------------|----------------------------|
--9-----9--9--9-----9--9L---|--9--9--9-----5--5--5--9----|
--7-----7--7--7-----7--7L---|--7--7--7L-7--3--3--3--7----|


----------------------------|----------------------------|
----------------------------|----------------------------|
----------------------------|----------------------------|
----------------------------|----------------------------|
--9-----9--9--9-----9--9L---|--9--9--9-----10-10-10-9----|
--7-----7--7--7-----7--7L---|--7--7--7L-7--8--8--8--7----|


----------------------------|----------------------------|
----------------------------|----------------------------|
----------------------------|----------------------------|
----------------------------|----------------------------|
--9-----9--9--9-----9--9L---|--9--9--9-----5--5--5--9----|
--7-----7--7--7-----7--7L---|--7--7--7L-7--3--3--3--7----|


----------------------------|----------------------------|
----------------------------|----------------------------|
----------------------------|----------------------------|
----------------------------|----------------------------|
--9-----9--9--9-----9--9L---|--9--9--9-----5--5--5--9----|
--7-----7--7--7-----7--7L---|--7--7--7L-7--3--3--3--7----|


----------------------------|----------------------------|
----------------------------|----------------------------|
----------------------------|----------------------------|
----------------------------|----------------------------|
--9-----9--9--9-----9--9L---|--9--9--9-----10-10-10-9----|
--7-----7--7--7-----7--7L---|--7--7--7L-7--8--8--8--7----|


----------------------------|----------------------------|
----------------------------|----------------------------|
----------------------------|----------------------------|
----------------------------|----------------------------|
--9-----9--9--9-----9--9L---|--9--9--9-----5--5--5--9----|
--7-----7--7--7-----7--7L---|--7--7--7L-7--3--3--3--7----|


----------------------------|----------------------------|
----------------------------|----------------------------|
----------------------------|----------------------------|
----------------------------|----------------------------|
--9-----9--9--9-----9--9L---|--9--9--9-----5--5--5--9----|
--7-----7--7--7-----7--7L---|--7--7--7L-7--3--3--3--7----|


----------------------------|----------------------------|-------|
----------------------------|----------------------------|-------|
----------------------------|----------------------------|-------|
----------------------------|----------------------------|-------|
--9-----9--9--9-----9--9L---|--9--9--9-----10-10-10-9----|--9----|
--7-----7--7--7-----7--7L---|--7--7--7L-7--8--8--8--7----|--7----|


----------------------------|----------------------------|
----------------------------|----------------------------|
----------------------------|----------------------------|
----------------------------|----------------------------|
--------------5-----0--1L---|--1-------------------------|
--0-----0-------------------|-----0--3--0-----1--3--5----|


----------------------------|----------------------------|
----------------------------|----------------------------|
----------------------------|----------------------------|
----------------------------|----------------------------|
--------------5-----0--1L---|--1--------------------0----|
--0-----0-------------------|-----0--3--0-----1--3-------|


----------------------------|----------------------------|
----------------------------|----------------------------|
----------------------------|----------------------------|
----------------------------|----------------------------|
--------------5-----0--1L---|--1-------------------------|
--0-----0-------------------|-----0--3--0-----1--3--5----|


----------------------------|----------------------------|----|
----------------------------|----------------------------|----|
----------------------------|----------------------------|----|
----------------------------|----------------------------|----|
--------------5-----0--1L---|--1--------------------0----|----|
--0-----0-------------------|-----0--3--0-----1--3-------|----|


----------------------------|----------------------------|
----------------------------|----------------------------|
----------------------------|----------------------------|
----------------------------|----------------------------|
--------------5-----0--1L---|--1-------------------------|
--0-----0-------------------|-----0--3--0-----1--3--5----|


----------------------------|----------------------------|
----------------------------|----------------------------|
----------------------------|----------------------------|
----------------------------|----------------------------|
--------------5-----0--1L---|--1--------------------0----|
--0-----0-------------------|-----0--3--0-----1--3-------|


----------------------------|----------------------------|
----------------------------|----------------------------|
----------------------------|----------------------------|
----------------------------|----------------------------|
--------------5-----0--1L---|--1-------------------------|
--0-----0-------------------|-----0--3--0-----1--3--5----|


----------------------------|----------------------------||
----------------------------|----------------------------||
----------------------------|----------------------------||
----------------------------|----------------------------||
--------------5-----0--1L---|--1--------------------0----||
--0-----0-------------------|-----0--3--0-----1--3-------||
Добавлено: 04.06.2016
Другие материалы по этой песне:
  • Аккорды и текст

Страница создана 04.06.2016
http://primanota.ru/grudge-project/they-say-i-cant-do-it-by-myself-chords.htm
Привет, Гость.
Предлагаем пройти революционный курс по гитаре.
Подарок от PrimaNota.Ru, забирай!