PrimaNota.ru - самый крупный в мире бесплатный архив песенных текстов, аккордов, табулатур и нот


Grudge Project - La Dama Del Lago - таба, видео

Регистрация Запомнить меня
Войти через:  Facebook Google Twitter Vk Yandex Mail.ru

Grudge Project - La Dama Del Lago - таба, видео

Печатать
Просмотров: 103
Уроки эстрадного вокала в Санкт-Петербурге
Tempo = 170
Ritmica

Intro
E |----|----|----------------------------|----------------|
B |----|----|----------------------------|----------------|
G |----|----|----------------------------|----------------|
D |----|----|--5-----5--5-----5--5-------|--5--5--5--5----|
A |----|----|--5-----5--5-----5--5-------|--5--5--5--5----|
E |----|----|--3-----3--3-----3--3-------|--3--3--3--3----|


----------------------------|----------------|----------------------------|
----------------------------|----------------|----------------------------|
----------------------------|----------------|----------------------------|
--5-----5--5-----5--5-------|--8--8--8--8----|--5-----5--5-----5--5-------|
--5-----5--5-----5--5-------|--8--8--8--8----|--5-----5--5-----5--5-------|
--3-----3--3-----3--3-------|--6--6--6--6----|--3-----3--3-----3--3-------|


----------------|----------------------------|----------------|
----------------|----------------------------|----------------|
----------------|----------------------------|----------------|
--3--3--3--3----|--5-----5--5-----5--5-------|--5--5--5--5----|
--3--3--3--3----|--5-----5--5-----5--5-------|--5--5--5--5----|
--1--1--1--1----|--3-----3--3-----3--3-------|--3--3--3--3----|


----------------------------|----------------|----------------------------|
----------------------------|----------------|----------------------------|
----------------------------|----------------|----------------------------|
--5-----5--5-----5--5-------|--5--5--5--5----|--5-----5--5-----5--5-------|
--5-----5--5-----5--5-------|--5--5--5--5----|--5-----5--5-----5--5-------|
--3-----3--3-----3--3-------|--3--3--3--3----|--3-----3--3-----3--3-------|


----------------|----------------------------|----------------|
----------------|----------------------------|----------------|
----------------|----------------------------|----------------|
--8--8--8--8----|--5-----5--5-----5--5-------|--3--3--3--3----|
--8--8--8--8----|--5-----5--5-----5--5-------|--3--3--3--3----|
--6--6--6--6----|--3-----3--3-----3--3-------|--1--1--1--1----|

                                               Verso
----------------------------|----------------|-------|-------|-------|-------|
----------------------------|----------------|-------|-------|-------|-------|
----------------------------|----------------|-------|-------|-------|-------|
--5-----5--5-----5--5-------|--5--5--5--5----|--5L---|--5----|--3L---|--3----|
--5-----5--5-----5--5-------|--5--5--5--5----|--5L---|--5----|--3L---|--3----|
--3-----3--3-----3--3-------|--3--3--3--3----|--3L---|--3----|--1L---|--1----|

                                 Pre-Coro
-------|-------|-------|-------|----------------------------|-------|
-------|-------|-------|-------|----------------------------|-------|
-------|-------|-------|-------|----------------------------|-------|
--5L---|--5----|--3L---|--3----|--5-----------------5--8----|--5----|
--5L---|--5----|--3L---|--3----|--5-----------------5--8----|--5----|
--3L---|--3----|--1L---|--1----|--3-----------------3--6----|--3----|


----------------------------|-------|----------------------------|-------|
----------------------------|-------|----------------------------|-------|
----------------------------|-------|----------------------------|-------|
--3-----------------5--8----|--5----|--5-----------------5--8----|--5----|
--3-----------------5--8----|--5----|--5-----------------5--8----|--5----|
--1-----------------3--6----|--3----|--3-----------------3--6----|--3----|

                              Coro
----------------------------|----------------|----------------|
----------------------------|----------------|----------------|
----------------------------|----------------|--5--3--2--2----|
--3-----------------5--8----|--5--5--5--5----|--5--3--2--2----|
--3-----------------5--8----|--5--5--5--5----|--3--1--0--0----|
--1-----------------3--6----|--3--3--3--3----|----------------|


----------------------------|----------------|----------------------------|
----------------------------|----------------|----------------------------|
--2--2--2--2--2--2--2--2----|--5--3--2--2----|--0--0--0--0--0--0--0--0----|
--2--2--2--2--2--2--2--2----|--5--3--2--2----|--0--0--0--0--0--0--0--0----|
--0--0--0--0--0--0--0--0----|--3--1--0--0----|----------------------------|
----------------------------|----------------|----------------------------|


----------------|----------------------------|----------------|
----------------|----------------------------|----------------|
--5--3--2--2----|--2--2--2--2--2--2--2--2----|--5--3--2--2----|
--5--3--2--2----|--2--2--2--2--2--2--2--2----|--5--3--2--2----|
--3--1--0--0----|--0--0--0--0--0--0--0--0----|--3--1--0--0----|
----------------|----------------------------|----------------|

                             Intro
----------------------------|----------------------------|----------------|
----------------------------|----------------------------|----------------|
--0--0--0--0--0--0--0--0----|----------------------------|----------------|
--0--0--0--0--0--0--0--0----|--5-----5--5-----5--5-------|--5--5--5--5----|
----------------------------|--5-----5--5-----5--5-------|--5--5--5--5----|
----------------------------|--3-----3--3-----3--3-------|--3--3--3--3----|


----------------------------|----------------|----------------------------|
----------------------------|----------------|----------------------------|
----------------------------|----------------|----------------------------|
--5-----5--5-----5--5-------|--8--8--8--8----|--5-----5--5-----5--5-------|
--5-----5--5-----5--5-------|--8--8--8--8----|--5-----5--5-----5--5-------|
--3-----3--3-----3--3-------|--6--6--6--6----|--3-----3--3-----3--3-------|


----------------|----------------------------|----------------|
----------------|----------------------------|----------------|
----------------|----------------------------|----------------|
--3--3--3--3----|--5-----5--5-----5--5-------|--5--5--5--5----|
--3--3--3--3----|--5-----5--5-----5--5-------|--5--5--5--5----|
--1--1--1--1----|--3-----3--3-----3--3-------|--3--3--3--3----|


----------------------------|----------------|----------------------------|
----------------------------|----------------|----------------------------|
----------------------------|----------------|----------------------------|
--5-----5--5-----5--5-------|--5--5--5--5----|--5-----5--5-----5--5-------|
--5-----5--5-----5--5-------|--5--5--5--5----|--5-----5--5-----5--5-------|
--3-----3--3-----3--3-------|--3--3--3--3----|--3-----3--3-----3--3-------|


----------------|----------------------------|----------------|
----------------|----------------------------|----------------|
----------------|----------------------------|----------------|
--8--8--8--8----|--5-----5--5-----5--5-------|--3--3--3--3----|
--8--8--8--8----|--5-----5--5-----5--5-------|--3--3--3--3----|
--6--6--6--6----|--3-----3--3-----3--3-------|--1--1--1--1----|

                                              Verso
----------------------------|----------------|-------|-------|-------|-------|
----------------------------|----------------|-------|-------|-------|-------|
----------------------------|----------------|-------|-------|-------|-------|
--5-----5--5-----5--5-------|--5--5--5--5----|--5L---|--5----|--3L---|--3----|
--5-----5--5-----5--5-------|--5--5--5--5----|--5L---|--5----|--3L---|--3----|
--3-----3--3-----3--3-------|--3--3--3--3----|--3L---|--3----|--1L---|--1----|

                                 Pre-coro
-------|-------|-------|-------|----------------------------|-------|
-------|-------|-------|-------|----------------------------|-------|
-------|-------|-------|-------|----------------------------|-------|
--5L---|--5----|--3L---|--3----|--5-----------------5--8----|--5----|
--5L---|--5----|--3L---|--3----|--5-----------------5--8----|--5----|
--3L---|--3----|--1L---|--1----|--3-----------------3--6----|--3----|


----------------------------|-------|----------------------------|-------|
----------------------------|-------|----------------------------|-------|
----------------------------|-------|----------------------------|-------|
--3-----------------5--8----|--5----|--5-----------------5--8----|--5----|
--3-----------------5--8----|--5----|--5-----------------5--8----|--5----|
--1-----------------3--6----|--3----|--3-----------------3--6----|--3----|

                             Coro
----------------------------|----------------|----------------|
----------------------------|----------------|----------------|
----------------------------|----------------|--5--3--2--2----|
--3-----------------5--8----|--5--5--5--5----|--5--3--2--2----|
--3-----------------5--8----|--5--5--5--5----|--3--1--0--0----|
--1-----------------3--6----|--3--3--3--3----|----------------|


----------------------------|----------------|----------------------------|
----------------------------|----------------|----------------------------|
--2--2--2--2--2--2--2--2----|--5--3--2--2----|--0--0--0--0--0--0--0--0----|
--2--2--2--2--2--2--2--2----|--5--3--2--2----|--0--0--0--0--0--0--0--0----|
--0--0--0--0--0--0--0--0----|--3--1--0--0----|----------------------------|
----------------------------|----------------|----------------------------|


----------------|----------------------------|----------------|
----------------|----------------------------|----------------|
--5--3--2--2----|--2--2--2--2--2--2--2--2----|--5--3--2--2----|
--5--3--2--2----|--2--2--2--2--2--2--2--2----|--5--3--2--2----|
--3--1--0--0----|--0--0--0--0--0--0--0--0----|--3--1--0--0----|
----------------|----------------------------|----------------|

                             Puente
----------------------------|----|----|----|----|----|----|----|
----------------------------|----|----|----|----|----|----|----|
--0--0--0--0--0--0--0--0----|----|----|----|----|----|----|----|
--0--0--0--0--0--0--0--0----|----|----|----|----|----|----|----|
----------------------------|----|----|----|----|----|----|----|
----------------------------|----|----|----|----|----|----|----|

 
----------------|-------|-------|-------|-------|-------|-------|-------|
----------------|-------|-------|-------|-------|-------|-------|--3----|
----------------|-------|-------|-------|-------|-------|-------|--2----|
-----------5----|--5L---|--5----|-------|-------|-------|-------|--0----|
-----------3----|--3L---|--3----|--3L---|--3----|--5L---|--5----|-------|
----------------|-------|-------|--1L---|--1----|--3L---|--3----|-------|

              
----------------|-------|-------|-------|-------|-------|-------|-------|
----------------|-------|-------|-------|-------|-------|-------|-------|
----------------|-------|-------|-------|-------|-------|-------|-------|
-----------5----|--0L---|--0~---|-------|-------|-------|-------|-------|
-----------3----|-------|-------|--3L---|--3~---|-------|-------|-------|
----------------|-------|-------|-------|-------|--1L---|--1~---|--3L---|


-------|----------|----------------|----------|----------------|----------|
-------|----------|----------------|----------|----------------|----------|
-------|----------|----------------|----------|----------------|----------|
-------|--5--8----|--8--8--7--5----|--5--8----|--8--8--7--5----|--5--8----|
-------|--5--8----|--8--8--7--5----|--5--8----|--8--8--7--5----|--5--8----|
--3~---|--3--6----|--6--6--5--3----|--3--6----|--6--6--5--3----|--3--6----|


----------------|----------|----------------|----------|----------------|
----------------|----------|----------------|----------|----------------|
----------------|----------|----------------|----------|----------------|
--8--8--7--5----|--5--8----|--8--8--7--5----|--5--8----|--8--8--7--5----|
--8--8--7--5----|--5--8----|--8--8--7--5----|--5--8----|--8--8--7--5----|
--6--6--5--3----|--3--6----|--6--6--5--3----|--3--6----|--6--6--5--3----|


----------|----------------|----------|----------------|----------|
----------|----------------|----------|----------------|----------|
----------|----------------|----------|----------------|----------|
--5--8----|--8--8--7--5----|--5--8----|--8--8--7--5----|--5--8----|
--5--8----|--8--8--7--5----|--5--8----|--8--8--7--5----|--5--8----|
--3--6----|--6--6--5--3----|--3--6----|--6--6--5--3----|--3--6----|


----------------|----------------------------|----------------------------|
----------------|----------------------------|----------------------------|
----------------|----------------------------|----------------------------|
--8--8--7--5----|--7--7--7--7--5-----8-------|--7--7--7--7--5-----8-------|
--8--8--7--5----|--7--7--7--7--5-----8-------|--7--7--7--7--5-----8-------|
--6--6--5--3----|--5--5--5--5--3-----6-------|--5--5--5--5--3-----6-------|


----------------------------|----------------------------|
----------------------------|----------------------------|
----------------------------|----------------------------|
--7--7--7--7--5-----8-------|--7--7--7--7--5-----8-------|
--7--7--7--7--5-----8-------|--7--7--7--7--5-----8-------|
--5--5--5--5--3-----6-------|--5--5--5--5--3-----6-------|


----------------------------|----------------------------|
----------------------------|----------------------------|
----------------------------|----------------------------|
--5--5--5--5--3-----6-------|--5--5--5--5--3-----6-------|
--5--5--5--5--3-----6-------|--5--5--5--5--3-----6-------|
--3--3--3--3--1-----4-------|--3--3--3--3--1-----4-------|


----------------------------|----------------------------|
----------------------------|----------------------------|
----------------------------|----------------------------|
--5--5--5--5--3-----6-------|--5--5--5--5--3-----6-------|
--5--5--5--5--3-----6-------|--5--5--5--5--3-----6-------|
--3--3--3--3--1-----4-------|--3--3--3--3--1-----4-------|


----------------------------|----------------------------|
----------------------------|----------------------------|
----------------------------|----------------------------|
--5--5--5--5--5--5--5--5----|--8--8--8--8--8--8--8--8----|
--5--5--5--5--5--5--5--5----|--8--8--8--8--8--8--8--8----|
--3--3--3--3--3--3--3--3----|--6--6--6--6--6--6--6--6----|


----------------------------|----------------------------|
----------------------------|----------------------------|
----------------------------|----------------------------|
--3--3--3--3--3--3--3--3----|--5--5--5--5--5--5--5--5----|
--3--3--3--3--3--3--3--3----|--5--5--5--5--5--5--5--5----|
--1--1--1--1--1--1--1--1----|--3--3--3--3--3--3--3--3----|


----------------------------|----------------------------|
----------------------------|----------------------------|
----------------------------|----------------------------|
--5--5--5--5--5--5--5--5----|--8--8--8--8--8--8--8--8----|
--5--5--5--5--5--5--5--5----|--8--8--8--8--8--8--8--8----|
--3--3--3--3--3--3--3--3----|--6--6--6--6--6--6--6--6----|


----------------------------|----------------------------|
----------------------------|----------------------------|
----------------------------|----------------------------|
--3--3--3--3--3--3--3--3----|--5--5--5--5--5--5--5--5----|
--3--3--3--3--3--3--3--3----|--5--5--5--5--5--5--5--5----|
--1--1--1--1--1--1--1--1----|--3--3--3--3--3--3--3--3----|


----------------------------|----------------------------|
----------------------------|----------------------------|
----------------------------|----------------------------|
--5--5--5--5--3-----6-------|--5--5--5--5--3-----6-------|
--5--5--5--5--3-----6-------|--5--5--5--5--3-----6-------|
--3--3--3--3--1-----4-------|--3--3--3--3--1-----4-------|


----------------------------|----------------------------|
----------------------------|----------------------------|
----------------------------|----------------------------|
--5--5--5--5--3-----6-------|--5--5--5--5--3-----6-------|
--5--5--5--5--3-----6-------|--5--5--5--5--3-----6-------|
--3--3--3--3--1-----4-------|--3--3--3--3--1-----4-------|


----------------------------|----------------------------|
----------------------------|----------------------------|
----------------------------|----------------------------|
--5--5--5--5--3-----6-------|--5--5--5--5--3-----6-------|
--5--5--5--5--3-----6-------|--5--5--5--5--3-----6-------|
--3--3--3--3--1-----4-------|--3--3--3--3--1-----4-------|


----------------------------|----------------------------|
----------------------------|----------------------------|
----------------------------|----------------------------|
--5--5--5--5--3-----6-------|--5--5--5--5--3-----6-------|
--5--5--5--5--3-----6-------|--5--5--5--5--3-----6-------|
--3--3--3--3--1-----4-------|--3--3--3--3--1-----4-------|


----------------------------|-------|----|----|----||
----------------------------|-------|----|----|----||
----------------------------|-------|----|----|----||
--5--5--5--5--3-----6-------|--5----|----|----|----||
--5--5--5--5--3-----6-------|--5----|----|----|----||
--3--3--3--3--1-----4-------|--3----|----|----|----||
Добавлено: 25.02.2016
Вам также может быть интересно:
Другие материалы по этой песне:
  • Аккорды и текст

Страница создана 25.02.2016
http://primanota.ru/grudge-project/la-dama-del-lago-chords.htm
Привет, Гость.
Предлагаем пройти революционный курс по гитаре.
Подарок от PrimaNota.Ru, забирай!