PrimaNota.ru - самый крупный в мире бесплатный архив песенных текстов, аккордов, табулатур и нот


Grudge Project - Kalypso - таба, видео

Регистрация Запомнить меня
Войти через:  Facebook Google Twitter Vk Yandex Mail.ru

Grudge Project - Kalypso - таба, видео

Печатать
Просмотров: 71
Tempo = 120
Electric Guitar

Legend
L - tied note
x - dead note
h - hammer on/pull off
b - bend
s - slide
~ - vibrato
g - ghost note
> - accentuated note
t - trill
M - palm mute
. - staccato
P - popping (bass)
S - slapping (bass)
+ - tapping
W - wide vibrato
< - fade in
w - whammy bar
= - tremolo picking
v - brush up
^ - brush down
V - pick stroke up
n - pick stroke down


E |-------|----------------------------|----------------------------|
B |--6----|--6--6-----6--5--6--8--6----|--6--6-----6--5--6--8.------|
G |--6----|--6--6-----6--5--6--8--6----|--6--6-----6--5--6--8.------|
D |--6----|--6--6-----6--5--6--8--6----|--6--6-----6--5--6--8.------|
A |-------|----------------------------|----------------------------|
E |-------|----------------------------|----------------------------|


----------------------------|----------------------------|
--6--6-----6--5--6--8--6----|--6--6-----6--5--6--8.------|
--6--6-----6--5--6--8--6----|--6--6-----6--5--6--8.------|
--6--6-----6--5--6--8--6----|--6--6-----6--5--6--8.------|
----------------------------|----------------------------|
----------------------------|----------------------------|


----------------------------|----------------------------|
--6--6-----6--5--6--8--6----|--6--6-----6--5--6--8.------|
--6--6-----6--5--6--8--6----|--6--6-----6--5--6--8.------|
--6--6-----6--5--6--8--6----|--6--6-----6--5--6--8.------|
----------------------------|----------------------------|
----------------------------|----------------------------|


----------------------------|
--6--6-----6--5--6--8--6----|
--6--6-----6--5--6--8--6----|
--6--6-----6--5--6--8--6----|
----------------------------|
----------------------------|


----------------------------------------------------|
--6-----6-----------6-----5-----6-----5--5--5--5----|
--6-----6-----------6-----5-----6-----5--5--5--5----|
--6-----6-----------6-----5-----6-----5--5--5--5----|
----------------------------------------------------|
----------------------------------------------------|


----------------------------|----------------------------|
----------------------------|----------------------------|
----------------------------|----------------------------|
--6-----6--5--5--6--8-------|--6-----6--5--5--6--5--3----|
--6-----6--5--5--6--8-------|--6-----6--5--5--6--5--3----|
--4-----4--3--3--4--6-------|--4-----4--3--3--4--3--1----|


----------------------------|----------------------------|
----------------------------|----------------------------|
----------------------------|----------------------------|
--6-----6--5--5--6--8-------|--6-----6--5--5--6--5--3----|
--6-----6--5--5--6--8-------|--6-----6--5--5--6--5--3----|
--4-----4--3--3--4--6-------|--4-----4--3--3--4--3--1----|


----------------------------|----------------------------|
----------------------------|----------------------------|
----------------------------|----------------------------|
--6--6--6--6--3-------------|--6-----6--5--5--6--8-------|
--6--6--6--6--3-------------|--6-----6--5--5--6--8-------|
----------------------------|--4-----4--3--3--4--6-------|


----------------------------|----------------------------|
----------------------------|----------------------------|
----------------------------|----------------------------|
--6-----6--5--5--6--5--3----|--6-----6--5--5--6--8-------|
--6-----6--5--5--6--5--3----|--6-----6--5--5--6--8-------|
--4-----4--3--3--4--3--1----|--4-----4--3--3--4--6-------|


----------------------------|----------------------------|----------|
----------------------------|----------------------------|--6L-6----|
----------------------------|----------------------------|--6L-6----|
--6-----6--5--5--6--5--3----|--6--6--6--6--3-------------|--6L-6----|
--6-----6--5--5--6--5--3----|--6--6--6--6--3-------------|----------|
--4-----4--3--3--4--3--1----|----------------------------|----------|


----------------------------|----|----------------------------|----|
--6-----6--1L-------1-------|----|--5-----6--8L-------8-------|----|
--6-----6--3L-------3-------|----|--5-----6--8L-------8-------|----|
--6-----6--3L-------3-------|----|--5-----6--8L-------8-------|----|
----------------------------|----|----------------------------|----|
----------------------------|----|----------------------------|----|


----------------------------|----|----------------------------|-------|
--5--5--5--2--------2-------|----|--------------5--6--5--6----|-------|
--6--6--6--3--------3-------|----|--6-----------5--6--5--6----|--3----|
--6--6--6--3--------3-------|----|--6-------------------------|-------|
----------------------------|----|--6-------------------------|-------|
----------------------------|----|----------------------------|-------|


----------------|----|--4--4----|--3-------------------------|----------------|
--9--9--8-------|----|--4--5----|--4-----------2--2--2--2----|--5--4--5--1----|
--10-10-10------|----|--5--5----|--5-----------3--3--3--3----|--5--5--5--3----|
--10-10-8-------|----|--6--6----|----------------------------|----------------|
----------------|----|----------|----------------------------|----------------|
----------------|----|----------|----------------------------|----------------|


-------|----------------------------|----------------------------|
--1----|--8-----8--8--8-----8--8----|----------------------------|
--3----|--8-----8--8--8-----8--8----|--6-----6-----6-----6-------|
--3----|--6-----6--6--6-----6--6----|--6-----6-----6-----6-------|
-------|----------------------------|--6-----6-----6-----6-------|
-------|----------------------------|----------------------------|


----------------------------|----------------------------|
--4--4--4--4--4--4--4--4----|--4--4--4--4--4--4--4--4----|
----------------------------|----------------------------|
----------------------------|----------------------------|
--4--4--4--4--4--4--4--4----|--4--4--4--4--4--4--4--4----|
----------------------------|----------------------------|


----------------------------|----------------------------|
----------------------------|--5--5--5--5--5--5--5--5----|
--6--6--6--6--6--6--6--6----|--5--5--5--5--5--5--5--5----|
--6--6--6--6--6--6--6--6----|--5--5--5--5--5--5--5--5----|
--4--4--4--4--4--4--4--4----|----------------------------|
----------------------------|----------------------------|


----------------------------|----------------------------|
--4--4--4--4--4--4--4--4----|--4--4--4--4--4--4--4--4----|
----------------------------|----------------------------|
----------------------------|----------------------------|
--4--4--4--4--4--4--4--4----|--4--4--4--4--4--4--4--4----|
----------------------------|----------------------------|


----------------------------|----------------------------|-------|
----------------------------|--5--5--5--5--5--5--5--5----|--4----|
--6--6--6--6--6--6--6--6----|--5--5--5--5--5--5--5--5----|-------|
--6--6--6--6--6--6--6--6----|--5--5--5--5--5--5--5--5----|-------|
--4--4--4--4--4--4--4--4----|----------------------------|--4----|
----------------------------|----------------------------|-------|


----------------------------------------------------|
--------------------------------------9--9--9--9----|
--10----------10----------------------9--9--9--9----|
--8-----------8-------------------------------------|
--8-----------8-------------------------------------|
----------------------------------------------------|


----------------------------------------------------|
--------------------------------------8--8--8--8----|
--10----------10----------------------8--8--8--8----|
--8-----------8-------------------------------------|
--8-----------8-------------------------------------|
----------------------------------------------------|


----------------------------|----------------------------|
----------------------------|----------------------------|
--8--8--8--8--8--8--8--8----|--6--6--6--6--5--5--5--5----|
--8--8--8--8--8--8--8--8----|--6--6--6--6--5--5--5--5----|
--6--6--6--6--6--6--6--6----|--4--4--4--4--3--3--3--3----|
----------------------------|----------------------------|


----------------------------------------------------|
--------------------------------------9--9--9--9----|
--10----------10----------------------9--9--9--9----|
--8-----------8-------------------------------------|
--8-----------8-------------------------------------|
----------------------------------------------------|


----------------------------------------------------|
--------------------------------------8--8--8--8----|
--10----------10----------------------8--8--8--8----|
--8-----------8-------------------------------------|
--8-----------8-------------------------------------|
----------------------------------------------------|


----------------------------|----------------------------|
----------------------------|----------------------------|
--8--8--8--8--8--8--8--8----|--6--6--6--6--5--5--5--5----|
--8--8--8--8--8--8--8--8----|--6--6--6--6--5--5--5--5----|
--6--6--6--6--6--6--6--6----|--4--4--4--4--3--3--3--3----|
----------------------------|----------------------------|


----------------------------|----------------------------|
----------------------------|----------------------------|
----------------------------|----------------------------|
--6-----6--5--5--6--8-------|--6-----6--5--5--6--5--3----|
--6-----6--5--5--6--8-------|--6-----6--5--5--6--5--3----|
--4-----4--3--3--4--6-------|--4-----4--3--3--4--3--1----|


----------------------------|----------------------------|
----------------------------|----------------------------|
----------------------------|----------------------------|
--6-----6--5--5--6--8-------|--6-----6--5--5--6--5--3----|
--6-----6--5--5--6--8-------|--6-----6--5--5--6--5--3----|
--4-----4--3--3--4--6-------|--4-----4--3--3--4--3--1----|


----------------------------|----------------------------|
----------------------------|----------------------------|
----------------------------|----------------------------|
--6--6--6--6--3-------------|--6-----6--5--5--6--8-------|
--6--6--6--6--3-------------|--6-----6--5--5--6--8-------|
----------------------------|--4-----4--3--3--4--6-------|


----------------------------|----------------------------|
----------------------------|----------------------------|
----------------------------|----------------------------|
--6-----6--5--5--6--5--3----|--6-----6--5--5--6--8-------|
--6-----6--5--5--6--5--3----|--6-----6--5--5--6--8-------|
--4-----4--3--3--4--3--1----|--4-----4--3--3--4--6-------|


----------------------------|----------------------------|
----------------------------|----------------------------|
----------------------------|----------------------------|
--6-----6--5--5--6--5--3----|--6--6--6--6--3-------------|
--6-----6--5--5--6--5--3----|--6--6--6--6--3-------------|
--4-----4--3--3--4--3--1----|----------------------------|


----------------------------------------------------|
--------------------------------------6--6--6--6----|
--6-----------6-----------6-------------------------|
--6-----------6-----------6-------------------------|
--6-----------6-----------6-----------6--6--6--6----|
----------------------------------------------------|


----------------------------|----------------------------|
--4--4--4--4--4--4--4--4----|--4--4--4--4--4--4--4--4----|
----------------------------|----------------------------|
----------------------------|----------------------------|
--4--4--4--4--4--4--4--4----|--4--4--4--4--4--4--4--4----|
----------------------------|----------------------------|


----------------------------|----------------------------|
----------------------------|--5--5--5--5--5--5--5--5----|
--6--6--6--6--6--6--6--6----|--5--5--5--5--5--5--5--5----|
--6--6--6--6--6--6--6--6----|--5--5--5--5--5--5--5--5----|
--4--4--4--4--4--4--4--4----|----------------------------|
----------------------------|----------------------------|


----------------------------|----------------------------|
--4--4--4--4--4--4--4--4----|--4--4--4--4--4--4--4--4----|
----------------------------|----------------------------|
----------------------------|----------------------------|
--4--4--4--4--4--4--4--4----|--4--4--4--4--4--4--4--4----|
----------------------------|----------------------------|


----------------------------|----------------------------|-------|
----------------------------|--5--5--5--5--5--5--5--5----|--4----|
--6--6--6--6--6--6--6--6----|--5--5--5--5--5--5--5--5----|-------|
--6--6--6--6--6--6--6--6----|--5--5--5--5--5--5--5--5----|-------|
--4--4--4--4--4--4--4--4----|----------------------------|--4----|
----------------------------|----------------------------|-------|


----------------------------|----------------------------|
--4--4--4--4--4--4--4--4----|--4--4--4--4--4--4--4--4----|
----------------------------|----------------------------|
----------------------------|----------------------------|
--4--4--4--4--4--4--4--4----|--4--4--4--4--4--4--4--4----|
----------------------------|----------------------------|


----------------------------|----------------------------|
----------------------------|--5--5--5--5--5--5--5--5----|
--6--6--6--6--6--6--6--6----|--5--5--5--5--5--5--5--5----|
--6--6--6--6--6--6--6--6----|--5--5--5--5--5--5--5--5----|
--4--4--4--4--4--4--4--4----|----------------------------|
----------------------------|----------------------------|


----------------------------|----------------------------|
--4--4--4--4--4--4--4--4----|--4--4--4--4--4--4--4--4----|
----------------------------|----------------------------|
----------------------------|----------------------------|
--4--4--4--4--4--4--4--4----|--4--4--4--4--4--4--4--4----|
----------------------------|----------------------------|


----------------------------|----------------------------|-------|
----------------------------|--5--5--5--5--5--5--5--5----|--4----|
--6--6--6--6--6--6--6--6----|--5--5--5--5--5--5--5--5----|-------|
--6--6--6--6--6--6--6--6----|--5--5--5--5--5--5--5--5----|-------|
--4--4--4--4--4--4--4--4----|----------------------------|--4----|
----------------------------|----------------------------|-------|


----------------------------|----------------|----------------------------|
----------------------------|----------------|----------------------------|
----------------------------|----------------|----------------------------|
--8--8--8s-13----11-6-------|--8--8--8--8----|--8--8--8s-13----11-6-------|
--6--6--6s-13----11-6-------|--7--7--7--7----|--6--6--6s-13----11-6-------|
--6--6--6s-11----9--4-------|--6--6--6--6----|--6--6--6s-11----9--4-------|


----------------|----------------------------|----------------|
----------------|----------------------------|----------------|
----------------|----------------------------|----------------|
--8--8--8--8----|--8--8--8s-13----11-6-------|--8--8--8--8----|
--7--7--7--7----|--6--6--6s-13----11-6-------|--7--7--7--7----|
--6--6--6--6----|--6--6--6s-11----9--4-------|--6--6--6--6----|


----------------------------|----------------|-------|-------|-------|-------|
----------------------------|----------------|-------|-------|-------|-------|
----------------------------|----------------|-------|-------|-------|-------|
--8--8--8s-13----11-6-------|--8--8--8--8----|-------|-------|-------|-------|
--6--6--6s-13----11-6-------|--7--7--7--7----|-------|-------|--6----|--4----|
--6--6--6s-11----9--4-------|--6--6--6--6----|--4----|--6----|-------|-------|


-------|-------|-------|-------|-------|----------|----------------------------|
-------|-------|-------|-------|-------|----------|--6--6-----6--5--6--8--6----|
-------|-------|-------|-------|-------|----------|--6--6-----6--5--6--8--6----|
-------|-------|-------|-------|-------|----------|--6--6-----6--5--6--8--6----|
-------|-------|--6----|--4----|--4----|--6-------|----------------------------|
--4----|--6----|-------|-------|-------|----------|----------------------------|


----------------------------|----------------------------|
--6--6-----6--5--6--8.------|--6--6-----6--5--6--8--6----|
--6--6-----6--5--6--8.------|--6--6-----6--5--6--8--6----|
--6--6-----6--5--6--8.------|--6--6-----6--5--6--8--6----|
----------------------------|----------------------------|
----------------------------|----------------------------|


----------------------------|----------------------------|
--6--6-----6--5--6--8.------|--6--6-----6--5--6--8--6----|
--6--6-----6--5--6--8.------|--6--6-----6--5--6--8--6----|
--6--6-----6--5--6--8.------|--6--6-----6--5--6--8--6----|
----------------------------|----------------------------|
----------------------------|----------------------------|


----------------------------|----------------------------|
--6--6-----6--5--6--8.------|--6--6-----6--5--6--8--6----|
--6--6-----6--5--6--8.------|--6--6-----6--5--6--8--6----|
--6--6-----6--5--6--8.------|--6--6-----6--5--6--8--6----|
----------------------------|----------------------------|
----------------------------|----------------------------|


----------------------------------------------------|
--6-----6-----------6-----5-----6-----5--5--5--5----|
--6-----6-----------6-----5-----6-----5--5--5--5----|
--6-----6-----------6-----5-----6-----5--5--5--5----|
----------------------------------------------------|
----------------------------------------------------|


----------------------------|----------------------------|
----------------------------|----------------------------|
----------------------------|----------------------------|
--6-----6--5--5--6--8-------|--6-----6--5--5--6--5--3----|
--6-----6--5--5--6--8-------|--6-----6--5--5--6--5--3----|
--4-----4--3--3--4--6-------|--4-----4--3--3--4--3--1----|


----------------------------|----------------------------|
----------------------------|----------------------------|
----------------------------|----------------------------|
--6-----6--5--5--6--8-------|--6-----6--5--5--6--5--3----|
--6-----6--5--5--6--8-------|--6-----6--5--5--6--5--3----|
--4-----4--3--3--4--6-------|--4-----4--3--3--4--3--1----|


----------------------------|----------------------------|
----------------------------|----------------------------|
----------------------------|----------------------------|
--6--6--6--6--3-------------|--6-----6--5--5--6--8-------|
--6--6--6--6--3-------------|--6-----6--5--5--6--8-------|
----------------------------|--4-----4--3--3--4--6-------|


----------------------------|----------------------------|
----------------------------|----------------------------|
----------------------------|----------------------------|
--6-----6--5--5--6--5--3----|--6-----6--5--5--6--8-------|
--6-----6--5--5--6--5--3----|--6-----6--5--5--6--8-------|
--4-----4--3--3--4--3--1----|--4-----4--3--3--4--6-------|


----------------------------|----------------------------|-------||
----------------------------|----------------------------|--6----||
----------------------------|----------------------------|--6----||
--6-----6--5--5--6--5--3----|--6--6--6--6--3-------------|--6----||
--6-----6--5--5--6--5--3----|--6--6--6--6--3-------------|-------||
--4-----4--3--3--4--3--1----|----------------------------|-------||

Добавлено: 25.02.2016
Другие материалы по этой песне:
  • Аккорды и текст

Страница создана 25.02.2016
http://primanota.ru/grudge-project/kalypso-chords.htm
Привет, Гость.
Предлагаем пройти революционный курс по гитаре.
Подарок от PrimaNota.Ru, забирай!