PrimaNota.ru - самый крупный в мире бесплатный архив песенных текстов, аккордов, табулатур и нот


Groundhogs - Thank christ for the bomb - таба, видео

Регистрация Запомнить меня
Войти через:  Facebook Google Twitter Vk Yandex Mail.ru

Groundhogs - Thank christ for the bomb - таба, видео

Печатать
Просмотров: 91
Авторы музыки: Tony (T.S.) McPhee



-------------------------------------------------------------------------------
	Thank Christ for the Bomb - Groundhogs
-------------------------------------------------------------------------------
Tabbed by:Harry Harris
Email: harry181053@yahoo.co.uk

Tuning:Standard



e|------0----0-----0-----0-----0-----0--------0-----0-----0-----0-----0----0-
B|------3----3-----3-----3-----3-----3--------3-----3-----3-----3-----3----3-
G|------2----2-----2-----2-----2-----2--------2-----2-----2-----2-----2----2-
D|---0------------------------------------2----------------------------------
A|---------------------------------------------------------------------------|
E|---------------------------------------------------------------------------|


e|---------------------------------------------------------------------------|
B|--3-----3-----3-----3------3--------3-----3-----3-----3----3-----3---------
G|------------------------------------1-----1-----1-----1----1-----1--------|
D|------------------------------------2-----2-----2-----2----2-----2---------|
A|--2-----2----2------2------2--------2-----2-----2-----2----2-----2-------|
E|--3-----3----3------3------3--------0-----0-----0-----0----0-----0---------|



e|---0------0------0-----0------0-------0-------------------------------------|
B|---3------3------3-----3------3-------3-------------------------------------|
G|---2------2------2-----2------2-------2------------------------------------
D|---0------0------0-----0------0-------0------------------------------------
A|---------------------------------------------------------------------------|
E|---2------2-----2------2------2------2-------------------------------------|


Etc.



This is my first time tabbing out a tune (not easy) the chords are played longer than I have
indicated in the tab and you switch between  the G chord and the E7 chord through the verses, listen to the song.


Chords:     D              Asus4               G              E7

                        XX0230                        XX2230                               320030                           022130

            And     200230

For the ending, just slide the G chord shape up 5th, 7th  amp; 9th frets.


Добавлено: 18.01.2014
Другие материалы по этой песне:
  • Аккорды и текст

Страница создана 18.01.2014
http://primanota.ru/groundhogs/thank-christ-for-the-bomb-chords.htm
Привет, Гость.
Предлагаем пройти революционный курс по гитаре.
Подарок от PrimaNota.Ru, забирай!