PrimaNota.ru - самый крупный в мире бесплатный архив песенных текстов, аккордов, табулатур и нот


Groundhogs - I Love You Miss Ogyny - аккорды и текст, таба, видео

Регистрация Запомнить меня
Войти через:  Facebook Google Twitter Vk Yandex Mail.ru

Groundhogs - I Love You Miss Ogyny - аккорды и текст, таба, видео

Печатать
Просмотров: 100
Уроки эстрадного вокала в Санкт-Петербурге
I Love You Miss Ogyny
Groundhogs
		   t. See http://www..net/faq/ for more information.                     #
#-----------------------------------------------------------------------------#


I Love You Miss Ogyny by The Groundhogs
from the album Hogwash
Tabbed by Malc Brookes (malc@malbro.demon.co.uk)

Tuning:
Standard, EADGBE.


Intro:
E|--------------------------|
B|--------------------------|
G|--2-----2-/4---8----------|
D|--2-----2-/4---6----------|
A|--0-----------------------|
E|--------------------------|


(play next 7 bars twice)
E|--------------------------|--------------------------|
B|--------------------------|--------------------------|
G|--------2-/4---8----------|--------2--/4---8---------|
D|--------2-/4---6----------|--------2--/4---6---------|
A|--0-----------------------|--0-----------------------|
E|--------------------------|--------------------------|


E|--------------------------|--------------------------|
B|--------------------------|--------------------------|
G|--2-----2-4---9---7---4---|--2-----2-4---9---7---5---|
D|--2-----2-4---7---5---4---|--2-----2-4---7---5---5---|
A|--0-------------0---0-----|--0-------------0---0-3---|
E|--------------------------|--------------------------|


E|--------------------------|--------------------------|
B|--------------------------|--------------------------|
G|--2-----2-4---9---7---4---|--5-5-5--5-5--5-5--5-2--0-|
D|--2-----2-4---7---5---4---|--5-5-5--4-4--3-3--3-2--0-|
A|--0-------------0---0-----|--------------------------|
E|--------------------------|--------------------------|


E|--------------------------|
B|--------------------------|
G|--2-----------------------|
D|--2-----------------------|
A|--0-----------------------|
E|--------------------------|


Fill:
E|--------------------------|--------------------------|
B|--------8---8-------------|--------8---8-------------|
G|--2-----7---6----------2--|--2-----7---6----------2--|
D|--2--------------------2--|--2--------------------2--|
A|--0--------------------0--|--0--------------------0--|
E|--------------------------|--------------------------|


E|--------------------------|--------------------------|
B|--------8---8-------------|--------8---8-------------|
G|--2-----7---6----------2--|--2-----7---6-------------|
D|--2--------------------2--|--2-----------------------|
A|--0--------------------0--|--0-----------------------|
E|--------------------------|--------------------------|


(originally two guitars)
E|--------------------------|
B|--------------------------|
G|--2-0-2-4-5---8---9-------|
D|----------------------2---|
A|--0---0-2-3---6---7-------|
E|----3-----------------0---|


Main theme (play twice):
E|-----------------------------------|
B|------1-------1-------1-------1----|
G|----2-------2-------2-------2------|
D|--2-----2-------2-1-----1-------1--|
A|-----------------------------------|
E|-----------------------------------|


E|-----------------------------------|
B|------1-------1-------1-------1----|
G|----2-------2-------2-------2------|
D|--0-----0-------0-1-----1-------1--|
A|-----------------------------------|
E|-----------------------------------|


Verse:
E|---------------------|---------------------|
B|----1---1----1---1---|----1---1----1---1---|
G|---2---2----2---2----|---2---2----2---2----|
D|--2--2---2-1--1---1--|--0--0---2-1--1---1--|
A|---------------------|---------------------|
E|---------------------|---------------------|
The days ....


E|-----------------------|-----------------------|
B|-----------------------|-----------------------|
G|-------2---------2-----|-------2---------2-----|
D|-----------------------|-----------------------|
A|--0---------0----------|--0---------0----------|
E|-----------------------|-----------------------|
The ties ...


E|-----------------------|-----------------------|
B|-----------------------|-----------------------|
G|------2---2-----2---2--|------2---2-----2---2--|
D|-----------------------|-----------------------|
A|--0-0---0---0-0---0----|--0-0---0---0-0---0----|
E|-----------------------|-----------------------|
But while ...


Fill:


Verse:


Fill:
E|--------------------------|--------------------------|
B|--------8---8-------------|--------8---8-------------|
G|--2-----7---6----------2--|--2-----7---6----------2--|
D|--2--------------------2--|--2--------------------2--|
A|--0--------------------0--|--0--------------------0--|
E|--------------------------|--------------------------|


E|--------------------------|--------------------------|
B|--------8---8-------------|--------8---8-------------|
G|--2-----7---6----------2--|--2-----7---6-------------|
D|--2--------------------2--|--2-----------------------|
A|--0--------------------0--|--0-----------------------|
E|--------------------------|--------------------------|


E|--------------------------|--------------------------|
B|--------------------------|--------------------------|
G|--------------------------|--------------1---2---1---|
D|--------------1---2---1---|--0---0-2-3---------------|
A|--0---0-2-3---------------|----3---------------------|
E|----3---------------------|--------------------------|


(play twice)
E|--------------------------|--------------------------|
B|--------------5---3-------|--------------5---3-------|
G|--5-4-5-4-2---2---2---5---|--5-4-5-4-2---2---2---5---|
D|--2-2-2-2-2---2---2---2---|--2-2-2-2-2---2---2---2---|
A|--------------------------|--------------------------|
D|--------------------------|--------------------------|


D E F G# A B C D (repeat to end)     
Добавлено: 03.07.2013
Вам также может быть интересно:
Другие материалы по этой песне:
  • Аккорды и текст

Страница создана 24.07.2012
http://primanota.ru/groundhogs/i-love-you-miss-ogyny-chords.htm
Привет, Гость.
Предлагаем пройти революционный курс по гитаре.
Подарок от PrimaNota.Ru, забирай!